Noiseworks - Take Me Back Chords & Tabs

 

Take Me Back Chords & Tabs

Noiseworks Chords & Tabs

Version: 1 Type: Bass Tab 0 ratings
1 star 2 stars 3 stars 4 stars 5 stars
comments

Take Me Back Bass Tab

NOISEWORKS - "Take Me Back" - Bass Tab

common time(4/4)
standard tuning(EADG)

INTRO: 
        (x3)                                    (x2)
|-----------|-----------------|---------|-----------|
|*---------*|-----------------|---------|*---------*|
|*-r-r-r-r-*|-r-r-r-5-7---5-7-|---r-r-r-|*-r-r-r-r-*|
|-----------|-----------0-----|-0-------|-----------|
   1 2 3 4    1 2 3 & a 4 & a   1 2 3 4    1 2 3 4

                                (x3)
|-------------|---------|-----------|------------------|
|-------------|---------|*---------*|*-----------------|
|-r-r-r-r-5-7-|-0-r-r-r-|*-r-r-r-r-*|*-----------------|
|-------------|---------|-----------|--0-0-0-0-0-0-0-0-|
  1 2 3 4 & a   1 2 3 4    1 2 3 4     1 & 2 & 3 & 4 &

                                                   (x2)
|-----------------|-----------------|------------------|
|-----------------|-----------------|-----------------*|
|-----------------|-----------------|-----------------*|
|-0-0-0-0-0-0-0-0-|-5-5-5-5-5-5-5-5-|-7-7-7-7-7-7-7-7--|
  1 & 2 & 3 & 4 &   1 & 2 & 3 & 4 &   1 & 2 & 3 & 4 &

VERSE:

|------------------|-----------------|-----------------|
|*-----------------|-----------------|-----------------|
|*-----------------|-----------------|-----------------|
|--0-0-0-0-0-0-0-0-|-0-0-0-0-0-0-0-0-|-5-5-5-5-5-5-5-5-|
   1 & 2 & 3 & 4 &   1 & 2 & 3 & 4 &   1 & 2 & 3 & 4 &

|------------------|
|-----------------*|
|-----------------*| (x2)
|-7-7-7-7-7-7-7-7--|
  1 & 2 & 3 & 4 &

|-----------------|-----------------|-----------------|
|-----------------|-----------------|-----------------|
|-----------------|-----------------|-----------------|
|-5-5-5-5-5-5-5-5-|-4-4-4-4-4-4-4-4-|-7-7-7-7-7-7-7-7-|
  1 & 2 & 3 & 4 &   1 & 2 & 3 & 4 &   1 & 2 & 3 & 4 &
[ Tab from: http://www.guitartabs.cc/tabs/n/noiseworks/take_me_back_btab.html ]
|-----------------|-----------------|-----------------|
|-----------------|-----------------|-----------------|
|-----------------|-----------------|-----------------|
|-7-7-7-7-7-7-7-7-|-5-5-5-5-5-5-5-5-|-4-4-4-4-4-4-4-4-|
  1 & 2 & 3 & 4 &   1 & 2 & 3 & 4 &   1 & 2 & 3 & 4 &

|---------------|-------------|
|---------9-----|-------------|
|-------9---9---|-------------|
|-7-7-7-------9-|-10------10/-|
  1 & 2 & 3 & 4   1 2 3 & 4

CHORUS/END:

|------------------|-----------------|-----------------|
|*-----------------|-----------------|-----------------|
|*-----------------|-----------4-7-4-|-----------------|
|--0-0-0-0-0-2-4-5-|-7-7-7-7-7-------|-5-5-5-5-5-5-5-5-|
   1 & 2 & 3 & 4 &   1 & 2 & 3 & 4 &   1 & 2 & 3 & 4 &
  ______             _____
 |all except        |last
|------------------|-----------------|
|-----------------*|-----------------|
|-----------------*|-------4-7-4-----|
|-7-7-7-7-7-0-2-5--|-7-7-7-------5-2-|
  1 & 2 & 3 & 4 &    1 & 2 & 3 & 4 &

SOLO:

|------------------|-----------------|-----------------|
|*-----------------|-----------------|-----------------|
|*-----------------|-----------------|-----------------|
|--0-0-0-0-0-0-0-0-|-7-7-7-7-7-7-7-7-|-5-5-5-5-5-5-5-5-|
   1 & 2 & 3 & 4 &   1 & 2 & 3 & 4 &   1 & 2 & 3 & 4 &

|------------------|
|-----------------*|
|-----------------*|
|-7-7-7-7-7-7-7-7--|
  1 & 2 & 3 & 4 &

SOLO:

|------------------|-----------------|-----------------|
|*-----------------|-----------------|-----------------|
|*-----------------|-----------------|-----------------|
|--0-0-0-0-0-0-0-0-|-7-7-7-7-7-7-7-7-|-5-5-5-5-5-5-5-5-|
   1 & 2 & 3 & 4 &   1 & 2 & 3 & 4 &   1 & 2 & 3 & 4 &

|------------------|
|-----------------*|
|-----------------*|
|-7-7-7-7-7-7-7-7--|
  1 & 2 & 3 & 4 &

By: Johari Taylor
E-mail: viking@powerup.com.au




Comments