Noise Therapy - Far Away Chords & Tabs

 

Far Away Chords & Tabs

Noise Therapy Chords & Tabs

Version: 1 Type: Tab 0 ratings
1 star 2 stars 3 stars 4 stars 5 stars
comments

Far Away Tab

   
                ********************************************
                ***                                      ***
                ***           Noise Therapy              ***
                ***            "Far Away"                ***
                ***           Album:Tension              ***
                ********************************************
This Song is in Drop D tuning

P.M.=Palm Muted
b=Bend  

DISTORTION THROUGH THE WHOLE SONG
Intro:(x4)/Verse(x4)              \/not P.M   
P.M._____________________________|-|             
E--------------------------------|-|
B--------------------------------|-|    
G--------------------------------|-|
D--------------------------------|-|
A-4-4-4-4-4-2-2-2   4-4-4-4-2-2-2|5|
D-4-4-4-4-4-2-2-2   4-4-4-4-2-2-2|5|   

Then(still Intro)/Pre-Verse:
E---------------------------------
B---------------------------------
G---------------------------------
D---------------------------------
A-4-4-4-4-4-2--4-4-4-4-2-2-5------
D-4-4-4-4-4-2--4-4-4-4-2-2-5------
[ Tab from: http://www.guitartabs.cc/tabs/n/noise_therapy/far_away_tab.html ]
Chorus(not correct amount of strums):
E-------------------------------------------------------------
B-------------------------------------------------------------
G-------------------------------------------------------------
D-------------------------------------------------------------
A-6-6--2-2-  3-3-3-3-3-3-3--10-10-8-8-6-6-6-6--2-2-2-2-4-4-4-4
D-6-6--2-2-  3-3-3-3-3-3-3--10-10-8-8-6-6-6-6--2-2-2-2-4-4-4-4

Breakdown:

P.M.-         ---                   ---        
E--------------------------------------------------------
B--------------------------------------------------------
G------7b-7b------7b-7b-------7b-7b------7b-7b-----7b-7b-
D--------------------------------------------------------
A-6-6--------------------6-6-------------------6-6-------
D-6-6--------------------6-6-------------------6-6-------

P.M.------------       --------------        --------------
E------------------------------------------------------------------
B------------------------------------------------------------------
G----------------7b-7b-----------------7b-7b-----------------7b-7b-
D------------------------------------------------------------------
A-4-4-4-4-4-2-2-2------4-4-4-4-4-2-2-2-------4-4-4-4-4-2-2-2-------
D-4-4-4-4-4-2-2-2------4-4-4-4-4-2-2-2-------4-4-4-4-4-2-2-2-------

End On:
|---|
|---|
|---|
|---|
|3-3|
|3-3|


Order:
Intro
Then(still Intro)
Pre-verse
verse
Chorus
verse
Chorus
Breakdown
Chorus
End on 

rate this tab at the top and tell me what you think, see ya
Comments