Noise Ratchet - My Day Chords & Tabs

 

My Day Chords & Tabs

Noise Ratchet Chords & Tabs

Version: 2 Type: Tab 0 ratings
1 star 2 stars 3 stars 4 stars 5 stars
comments

My Day Tab

Song: My Day
Artist: Noise Ratchet
Album: Till We Have Faces
Tabbed by: Nic (rusticot5@prexar.com)

Tuning: Standard

Guitar 1
verse (clean)
palm mute
e--------------------------------------------------------------------|
B--------------------------------------------------------------------|
G--------------------------------------------------------------------|
D--------------------------------------------------------------------|
A----------9-9-------------9-9-------------9-9------------12-12-12-0-|
E--7-7-7-7-----7-7-5-5-5-5-----5-5-0-0-0-0-----0-0-3-3-3-0-----------|

pre-chorus (with distortion)
palm mute
e----------------xxx-----|
B----------------xxx-----|
G----------------xxx-----|
D--222222225555----------|
A--222222225555----------|
E--000000003333----------|

chorus (with distortion)
e------------------------|
B------------------------|
G------------------------|
D---9--2--5--2-----------|
A---9--2--5--2-----------|
E---7--0--3--0-----------|

bridge (with distortion)
e----------------------------------------------|
B----------------------------------------------|
G----------------------------------------------|
D--99-99-99-99-9999-99-99-99-99-9999--5-4-2----|
A--99-99-99-99-9999-99-99-99-99-9999--5-4-2----|
E--77-77-77-77-7777-77-77-77-77-7777--3-2-0----|

(start clean, end with distortion)
e----------------------------------------|
B----------------------------------------|
G----------------------------------------|
D--99999999777777772222222255555555------|
A--99999999777777772222222255555555------|
E--77777777555555550000000033333333------|

end(with distortion)
e------------------------|
B------------------------|
G----------7-------------|
D----9--7--7-------------|
A----9--7--5-------------|
E----7--5----------------|
[ Tab from: http://www.guitartabs.cc/tabs/n/noise_ratchet/my_day_tab_ver_2.html ]
Guitar 2
verse (clean)
e-------------------------------------------------|
B-------------------------------------------------|
G-----11-14----9----------------------------------|
D--12-------12---------------11----14----14-------|
A-------------------------12----12----12----------|
E-------------------------------------------------|

bridge (clean)
e-----------------------------|
B-----------------------------|
G--14-11--------------11-14---|
D--------12--------12---------|
A-----------------------------|
E-----------------------------|

e--------------------------------------------|
B--------------------------------------------|
G-------------------11-14-11-14--11(9)-------|
D------12--------12--------------------------|
A---12----9---12-----------------------------|
E--------------------------------------------|

with distortion
e--------------------------------------------|
B--------------------------------------------|
G--------------------------------------------|
D--9-11-12-14-14--9-11-12-14-14--------------|
A--------------------------------------------|
E--------------------------------------------|

e-----------------------------------------------|
B-----------------------------------------------|
G-----------------------------------------------|
D--16-16-16-16-16/14-14-14-14/12-12-12-12/11-11-|
A-----------------------------------------------|
E-----------------------------------------------|

e--------------------------------------------------|
B--------------------------------------------------|
G--14-14-14-14-14-14-14-14-16-16-16-16-16-16-16-16-|
D--------------------------------------------------|
A--------------------------------------------------|
E--------------------------------------------------|

it might not be perfect...but it works...
Comments