Noise Machine - O Chords & Tabs

 

O Chords & Tabs

Noise Machine Chords & Tabs

Version: 1 Type: Tab 0 ratings
1 star 2 stars 3 stars 4 stars 5 stars
comments

O Tab

song:             o
artist:           nöise machine
instrument:       guitar
recording:        secret sins of the father
submitted by:     panister fatheroy

official website: www.noisemachine.cjb.net




intro/verse

                        x6
--------------------------|----------------------------------
--------------------------|----------------------------------
-----4-----2-----7--------|----------------------------------
---2-----2-----5-------2--|-5-5-5-5-5-5-5-5-5-5-5-5-5-5-5-5--
-0-----0-----3-------3----|----------------------------------
-------------------1------|----------------------------------



chorus
[ Tab from: http://www.guitartabs.cc/tabs/n/noise_machine/o_tab.html ]
               x4                  x4
-----------------|-------------------|
-----------------|-------------------|
-----5---4---2---|-----5---4---2-----|
---2---2---2---2-|---2---2---2---2---|
-0---------------|-------------------|
-----------------|-3-----------------|
               x4                 x3
-----------------|------------------|------------------
-----------------|------------------|------------------
-----5---4---2---|-----5---4---2----|------------------
---2---2---2---2-|---2---2---2---2--|---------2-2-2-2--
-3---------------|-2----------------|-----2-2-2-2-2-2--
-----------------|------------------|-0-0-0-0-0-0-0-0--


second verse lead
                                    x2
--------------------------------------|
----------------------------------17--|
--17-16-14-16-17---------------14-----|
-----------------14--14-15-14---------|
--------------------------------------|
--------------------------------------|

                                    x2
--------------------------------------|---------
------------------------------18-17---|-15--12--
--17-16-14-16-17----------------------|---------
-----------------14--14-15-14---------|---------
--------------------------------------|---------
--------------------------------------|---------


second chorus

        x4        x4           x4           x4
----------|---------|------------|------------|
----------|---------|------------|--17-15-13--|
----------|--9-7-5--|--17-16-14--|------------|
--10-9-7--|---------|------------|--14-12-10--|
----------|--7-5-3--|--15-14-12--|------------|
--8--7-5--|---------|------------|------------|


end lead

---------------------------------
--10---10b-8---10/12-13--13b-12--
---------------------------------
---------------------------------
---------------------------------
---------------------------------


Comments