Noise Machine - Mag Pie Chords & Tabs

 

Mag Pie Chords & Tabs

Noise Machine Chords & Tabs

Version: 1 Type: Tab 0 ratings
1 star 2 stars 3 stars 4 stars 5 stars
comments

Mag Pie Tab


song:             mag pie
artist:           nöise machine
instrument:       guitar
recording:        secret sins of the father
submitted by:     panister fatheroy

official website: www.noisemachine.cjb.net



theme one

                                         x2
-------------------------------------------
---------------------------------------17--
--------12----------12---------14--13------
-----11----11----11----11------------------
--12----------12----------12---------------
-------------------------------------------
[ Tab from: http://www.guitartabs.cc/tabs/n/noise_machine/mag_pie_tab.html ]
                                         x2
-------------------------------------------
--------13----------13-----------------17--
-----11----11----11----11------14--13------
--12----------12----------12---------------
-------------------------------------------
-------------------------------------------



theme two

---------------------------------
--13--12-13-12--12-13-15---------
--------------------------14-13--
---------------------------------
---------------------------------
---------------------------------

--------------------------15br--
--13--12-13-12--12-13-15--------
--------------------------------
--------------------------------
--------------------------------
--------------------------------


coda

-----------------------
-----------------------
--------9--------------
-----9-----------------
--------------5-4-3-2--
--0--------0-----------


Comments