Nofx - Youre Bleeding Chords & Tabs

 

Youre Bleeding Chords & Tabs

Nofx Chords & Tabs

Version: 2 Type: Bass Tab 0 ratings
1 star 2 stars 3 stars 4 stars 5 stars
comments

Youre Bleeding Bass Tab

Song: You're Bleeding
band: NoFX
Album: White Trash 
tabbed by: Carlos Pino


G----------------------------------------------------
D----------------------------------------------------
A-------------3----------------3---------------3---
E--------0---------5-----0--------5----0---------

G------------------------------------------------------------------
D------------------------drums enter here----------------
A------------3---------------------------------------------------
E--5-----0------3----------------------------------------------

VERSE:
G---------------------------------------------------------------------------------
D-----------------------------------------------------------------------------------
A-------------------------------------3----3--3--3------------------------------
E--5----5--5--5--0----0--0--0----------------------3----3--3--3-----------
[ Tab from: http://www.guitartabs.cc/tabs/n/nofx/youre_bleeding_btab_ver_2.html ]
CHORUS:
Part 1(x2):
"You're draining,..."       
G----------------------------------------------------------------------
D------------------------------------------------------------------------
A--------------------------------------3----3--3----3--3----3--3--3
E--0----0--0----0--0----0--0--0----------------------------------

G-------------------------------------------------------------
D------------------------------------------------------------
A--5----5--5----5--5----5--5--5--2----2--2----2--2----2--2--2
E------------------------------------------------------------

-BRIDGE:
Part 2(x4):            
G-----------------------------------------------------------------------
D----------------------------------------------------------------------
A-------------2--3----3--3--3---------------------------------------
E--0--x-x-----------------------5---5---5---6---7----7--7--------


Comments