Nofx - Whoops I Odd Chords & Tabs

 

Whoops I Odd Chords & Tabs

Nofx Chords & Tabs

Version: 1 Type: Tab 0 ratings
1 star 2 stars 3 stars 4 stars 5 stars
comments

Whoops I Odd Tab

NOFX - Whoops I Od'd
By:Andrew (Guitarguyx182@belg88.com
[ Tab from: http://www.guitartabs.cc/tabs/n/nofx/whoops_i_odd_tab.html ]
Intro
e|---------------------------------------------------------------------------|
B|---------------------------------------------------------------------------|
G|---------------------------------------------------------------------------|
D|--0--0--0-10-10-12-12-12-0-0-0-7-7-9-9-9-17-17-17-16-14-12-----------------|
A|-10-10-10-10-10-10-10-10-7-7-7-7-7-7-7-7-15-15-15-14-12-10-----------------|
E|---------------------------------------------------------------------------|
Verse
e|---------------------------------------------------------------------------|
B|---------------------------------------------------------------------------|
G|---------------------------------------------------------------------------|
D|--0--0--0-10-10-12-12-12-0-0-0-7-7-9-9-9-17-17-17-16-14-12-12-----0h10--0--|
A|-10-10-10-10-10-10-10-10-7-7-7-7-7-7-7-7-15-15-15-14-12-10-10--5-10-10-10--|
E|---------------------------------------------------------------3-----------|
"I Never Ment"
e|---------------------------------------------------------------------------|
B|---------------------------------------------------------------------------|
G|---------------------------------------------------------------------------|
D|------------------------x2---9-9-5-5-5-------------------------------------|
A|-7-7-7-10-10-10-5-5-5--------7-6-5-4-3-------------------------------------|
E|-5-5-5-8--8--8--3-3-3------------------------------------------------------|

someone told me this is only on bass, but here it is for guitar
Comments