Nofx - White Bread Chords & Tabs

 

White Bread Chords & Tabs

Nofx Chords & Tabs

Version: 2 Type: Tab 0 ratings
1 star 2 stars 3 stars 4 stars 5 stars
comments

White Bread Tab

   
WHITE BREAD by NOFX. Album: Maximum Rocknroll (1988?)
Just play it!
A=left Melvin   B=right Melvin   A&B=both Melvins
:
# intro #A&B
E----------------------------------------------------------------------------|
B----------------------------------------------------------------------------|
G--------------------6--7---------------------------6--7---------------------|
D---7--5-7-----2--3--6--7---------7--5-7---5-4-3-2--6--7---------------------|
A---7--5-7-----2--3--4--5---------7--5-7---5-4-3-2--4--5---------5-5-5-5-5-5-|
E---5--3-5-----0--1---------------5--3-5---3-2-1-0---------------------------|
:
# intro2 #A                                                             >
E----------------------------------------------------------------------->
B----------------------------------------------------------------------->
G---------2-4-5-------9---11-12-7-------5-----4-----------------5-6-7--->
D---2-----2-4-5-------9---11-12-7-------5-----4---5-------7-----5-6-7--->
A---2-----0-2-3-------7----9-10-5-------3-----2---5-------7-----3-4-5--->
E---0---------------------------------------------3-------5------------->
# intro2 #B                                                             >
E----------------------------------------------------------------------->
B----------------------------------------------------------------------->
G---------2-4-5-----------------7-------5-----4-----------------5-6-7--->
D---2-----2-4-5-------2-----4-5-7-------5-----4---5-------7-----5-6-7--->
A---2-----0-2-3-------2-----4-5-5-------3-----2---5-------7-----3-4-5--->
E---0-----------------0-----2-3-------------------3-------5------------->
>intro2A
>-----------------------------------------------------------------------|
>-----------------------------------------------------------------------|
>---------2-4-5-5-5-5-9---11-12-7-------5-----4-2---------5-----4-5-7---|
>---2-----2-4-555555559---11-12-7-------5-----4-2-5-------5-----4-5-7---|
>---2-----0-2-353535357----9-10-5-------3-----2-0-5-------3-----2-3-5---|
>---0----------3-3-3-3----------------------------3---------------------|
>intro2B
>-----------------------------------------------------------------------|
>-----------------------------------------------------------------------|
>---------2-4-5-5-5-5-----------7-7-7-7-5-----4-2---------5-----4-5-7---|
>---2-----2-4-555555552-----4-5-777777775-----4-2-5-------5-----4-5-7---|
>---2-----0-2-353535352-----4-5-575757573-----2-0-5-------3-----2-3-5---|
>---0----------3-3-3-30-----2-3--5-5-5-5----------3---------------------|
:
# verse #A&B X4    *=play 6X
E------------------------------------------------------------------->
B----------------------------------------*-------------------*------>
G---9-9-9-9-12-11-11-11-11-12-7-7-7-7---9-------------7-7-7-9------->
D---9-9-9-9-12-11-11-11-11-12-7-7-7-7-9-9-------5-5-5-7-7-7-9------->
A---7-7-7-7-10--9--9--9--9-10-5-5-5-5-9-7-------5-5-5-5-5-5-7------->
E-------------------------------------7---------3-3-3--------------->
>verseA&B
>---------------------------------------|
>------------*-------*-------*----------|
>---4---5---4-------5-------7--------*--|
>---4---5---4-------5-------7-------2---|
>---2---3---2-------3-------5-------2---|
>-----------------------------------0---|
:
# outro #A&B       *=play 6X          (We're all living on white bread...)
E----------------------------------------------------------------------------|
B----------------------------------------*-------------------*---------------|
G---9-9-9-9-12-11-11-11-11-12-7-7-7-7---9-------------7-7-7-9-------4---5----|
D---9-9-9-9-12-11-11-11-11-12-7-7-7-7-9-9-------5-5-5-7-7-7-9-------4---5---2|
A---7-7-7-7-10--9--9--9--9-10-5-5-5-5-9-7-------5-5-5-5-5-5-7-------2---3---2|
E-------------------------------------7---------3-3-3-----------------------0|
:
Tabbed by Jussi Heinonen 30.04.1998.            Thanks to Juha Kellokoski.
[ Tab from: http://www.guitartabs.cc/tabs/n/nofx/white_bread_tab_ver_2.html ]
Comments