Nofx - What Ever Didi Wants Chords & Tabs

 

What Ever Didi Wants Chords & Tabs

Nofx Chords & Tabs

Version: 1 Type: Tab 0 ratings
1 star 2 stars 3 stars 4 stars 5 stars
comments

What Ever Didi Wants Tab

   
WHATEVER DIDI WANTS by NOFX. Album : Heavy petting zoo (1996)             
tab by: Fede Santelmo
Riffs are nice to play. 
A=Melvin   B=EL Hefe   A&B=both
:
# intro # B
E-------------|
B-------------|
G-------------|
D-------------|
A---2-----3---|
E-------------|
:
# intro2 #A???                                                               >
E-----------------3--------------------------------3--------3--3--3-->
B-----------------3--------------------------------3--------3--3--3-->
G---5-------------4--------------------------------4--------4--4--4-->
D---5-------------5--------------3-----------------5--------5--5--5-->
A---3-------------5--------------3-----------------5--------5--5--5-->
E-----------------3--------------1-----------------3--------3--3--3-->
# intro2 #B???                                                               >
E-------------------------------------------------------------------->
B-------------------------------------------------------------------->
G--15/17-17-15/17-17-15/17-15/17-17-17-15/17-17-15/17-17-15/17-15/17->
D-------------------------------------------------------------------->
A-------------------------------------------------------------------->
E-------------------------------------------------------------------->
[ Tab from: http://www.guitartabs.cc/tabs/n/nofx/what_ever_didi_wants_tab.html ]
>intro2A???
E---------------------3-----------------------------------3-3-3-3---|
B---------------------3-----------------------------------3-3-3-3---|
G---5-----------------4-----------------------------------4-4-4-4---|
D---5-----------------5-----------------3-----------------5-5-5-5---|
A---3-----------------5-----------------3-----------------5-5-5-5---|
E---------------------3-----------------1-----------------3-3-3-3---|
>intro2B???
E-------------------------------------------------------------------|
B-------------------------------------------------------------------|
G--15/17-17-15/17-17-15/17-15/17-17-17-15/17-17-15/17-17-15/17-17---|
D-------------------------------------------------------------------|
A-------------------------------------------------------------------|
E-------------------------------------------------------------------|
:
# verse #A   *=play 6-7X palm-muted   #=play 5X                     >
E-----------------------------------------/-palm-muted\------------->
B----*---------------------------------------------------*---------->
G---5--------*-----------------*-------*----------------5--------*-->
D---5-------5-----------------3-------5-----------------5-------5--->
A---3-------5-----------------3-------5---7-5-7-5-333-3-3-------5--->
E-----------3-----------------1-------3-------------------------3--->
# verse #B   !palm-muted!                                                       >
E------------------------------------------------------------------->
B------------------------------------------------------------------->
G---------------9-7-9-7-555-5-5-----------9-7-9-7-555-5-5----------->
D------------------------------------------------------------------->
A------------------------------------------------------------------->
E------------------------------------------------------------------->
    
                       
>verseA
>------------------------------------------------|
>---------------------------#--------------------|
>-------------------*-----12---------------------|
>------------------3------12---------------------|
>------------------3------10---------------------|
>------------------1-----------------------------|
>verseB
>------------------------------------------------|
>------------------------------------------------|
>---9-7-9-7-555-5-5------------9-7-9-7-555-5-5---|
>------------------------------------------------|
>------------------------------------------------|
>------------------------------------------------|
:
# verse-part2 #A   *=play 6-7X palm-muted                           >
E-----------------------------------------/-palm-muted\------------->
B----*---------------------------------------------------*---------->
G---5--------*-----------------*-------*----------------5--------*-->
D---5-------5-----------------3-------5-----------------5-------5--->
A---3-------5-----------------3-------5---7-5-7-5-333-3-3-------5--->
E-----------3-----------------1-------3-------------------------3--->
# verse-part2 #B   !palm-muted!                                                       >
E------------------------------------------------------------------->
B------------------------------------------------------------------->
G---------------9-7-9-7-555-5-5-----------9-7-9-7-555-5-5----------->
D------------------------------------------------------------------->
A------------------------------------------------------------------->
E------------------------------------------------------------------->
>verse-part2A
>------------------------------/p-m\---|
>--------------------------------------|
>-------------------*-------*----------|
>------------------3-------5-----------|
>------------------3-------5---7-5-7---|
>------------------1-------3-----------|
>verse-part2B
>--------------------------------------|
>--------------------------------------|
>---9-7-9-7-555-5-5------------9-7-9---|
>--------------------------------------|
>--------------------------------------|
>--------------------------------------|
:
# pre-chorus #A   !play all notes X8 palm-muted!
E-------------------------------|
B-------------------------------|
G---5---------------------------|
D---5-------5-------3-------3---|
A---3-------5-------3-------3---|
E-----------3-------1-------1---|
# pre-chorus #B   !play all notes X8 palm-muted!
E-------------------------------|
B-------------------------------|
G---5-------5-------5-------5---|
D-------------------------------|
A-------------------------------|
E-------------------------------|

# chorus #A   !play all notes X16 palm-muted!
E-------------------------------------------------------------|
B-------------------------------------------------------------|
G-------------------------5-----------------------------------|
D---------7---------------5---------------5---------------3---|
A---------7---------------3---------------5---------------3---|
E---------5-------------------------------3---------------1---|
# chorus #B   *=play 12X   !palm-muted!
E-------------------------------------------------------------|
B-------------------------------------------------------------|
G-9-7-9-7--*------9-7-9-7--*------9-7-9-7--*------9-7-9-7-----|
D---------7---------------5---------------5----------------*--|
A---------------------------------------------------------8---|
E-------------------------------------------------------------|
:
# end-chorus #B !palm-muted! !A is quiet!
E---------------------|
B---------------------|
G---9-7-9-7-555-5-5---|
D---------------------|
A---------------------|
E---------------------|
Then play AverseA or BverseB, Averse-part2A or Bverse-part2B, Apre-chorusA or
Bpre-chorusB and AchorusA or BchorusB.
:
# bridge #A     *=play 14X
E-----------------------------------------------|
B--------------------*-------*------------------|
G---5-------3-------5-------3--------*-------*--|
D---5-------3---3---5-------3-------3-------5---|
A---3-------1---3---3-------1-------3-------5---|
E---------------1-------------------1-------3---|
# bridge #B     *=play 8X
E---------------------*-------*-------*-------*-|
B--------------------8-------6-------6-------8--|
G---5-------3--------9-------5-------5-------7--|
D---5-------3---3-------------------------------|
A---3-------1---3-------------------------------|
E---------------1-------------------------------|
:
# solo #B  !A plays verseA!                                                  >
E-------------------------------------------------------------------->
B-------------------------------------------------------------------->
G-----9-7-9-7-555-5-5-5-5-7---------------7-----9-9-7-5-999-9-9-9-9-->
D-------------------------5----10-910-9-777-7-7-7-7-7---------------->
A-------------------------------------------------------------------->
E-------------------------------------------------------------------->

>soloB
>------------------------|
>------------------------| Then play Averse-part2A or Bverse-part2B,
>------------------------| Apre-chorusA or Bpre-chorusB and AchorusA 
>---9---7-9-10---9-10-12-|    or BchorusB.
>------------------------|
>------------------------|
:
# last chorus #B   *=play 12X   !palm-muted!   !A plays chorusA!
E-------------------------------------------------------------|
B----------*---------------*---------------*---------------*--|
G-9-7-9-7-6-------9-7-9-7-5-------9-7-9-7-4-------9-7-9-7-5---|
D-------------------------------------------------------------|
A-------------------------------------------------------------|
E-------------------------------------------------------------|
:
Then play A???intro2A??? or B???intro2B???.
Quite many palm-mutes!
Comments