Nofx - We Threw Gasoline On The Fire Chords & Tabs

 

We Threw Gasoline On The Fire Chords & Tabs

Nofx Chords & Tabs

Version: 2 Type: Tab 0 ratings
1 star 2 stars 3 stars 4 stars 5 stars
comments

We Threw Gasoline On The Fire Tab

   
introA&B x2
e|-------------|
b|----2--2-2---|
g|-2--3--3-322-|
d|-2--0--0-022-|
a|-0--------00-|
e|-------------|
   A  D  D DAA

intro2A&B x2 (play once) /pickslide
e|----------------------------------------------------|
b|-------------2-222-222-2-2-222-222-2----------------|
g|-2-222-222-2-3-333-333-3-3-333-333-3-2-(222-222-2)--|
D|-2-222-222-2-0-000-000-0-0-000-000-0-2-(222-222-2)-/|
a|-0-000-000-0-------------------------0-(000-000-0)-/|
e|---------------------------------------------------/|

verseA&B *6 #3 (brilliant...)
e|----------------------------------|
b|----------------------------------|
g|----------5#----5#-3#----------5*-|
d|-7#-5#-3#-5--5*-5--3--3#-3#-5*-5--|
a|-7--5--3--3--5--3--1--0--3--5--3--|
e|-5--3--1-----3-----------1--3-----|
[ Tab from: http://www.guitartabs.cc/tabs/n/nofx/we_threw_gasoline_on_the_fire_tab_ver_2.html ]
verse2A&B *6 #3 (a prophet not to be.......)
e|-------------------------------------|
b|-------------------------------------|
g|----------5#----5#-3#----------------|
d|-7#-5#-3#-5--5*-5--3--3#-3#-5*-3*-5*-|
a|-7--5--3--3--5--3--1--0--3--5--3--5--|
e|-5--3--1-----3-----------1--3--1--3--|

verse3A&B !play all notes 6 times! *8 (1)
e|--------------------------------------------|
b|--------------------------------------------|
g|-5--3-----5--5--------------------------(5)-|
d|-5--3--3--5--5--5--3--7--3--5--7*-3--5--(5)-|
a|-3--1--3--3--3--2--3--7--3--5--7--3--5--(3)-|
e|-------1-----------1--5--1--3--5--1--3------|

then play all verses

verse4A&B 6x xpalm mute
e|-------------------------|
b|-------------------------|
g|-5-xxx-555---------------|
D|-5-xxx-555-5-3-xxx-333-5-|
A|-3-xxx-333-5-3-xxx-333-5-|
e|-----------3-1-xxx-111-3-|

then play verse mostly palm muted (listen to the song) and end by playing 
D|5
A|5
e|3 x3
have fun
Tim Robaczewski
Comments