Nofx - Vincent Chords & Tabs

 

Vincent Chords & Tabs

Nofx Chords & Tabs

Version: 3 Type: Bass Tab 0 ratings
1 star 2 stars 3 stars 4 stars 5 stars
comments

Vincent Bass Tab

"Vincent"-Nofx
Tabbed by stuporman_20
Tab type-bass

Before i start with the tab, i would like to say that this song is played
in 4/4 time in moderato speed. Oh, and moderato is 2 beats a second. ~=hold 2 beats.

Intro

G|----------------------------------------------------------------|
D|----------------------------------------------------------------|
A|5-55555555555555------------------------------------------------|
E|----------------000000000000000033333333333333335555555555555555|

Fill 1

G|----------------|
D|----------------|
A|5--5-55-55-5----|
E|----------------|
starry, starry night

Verse

G|------------------------------------------------------------------|
D|------------------------------------------------------------------|
A|--------------------------------------------------------------5x32|
E|00-000-000-000-000-000-000-000-033-333-333-333-355-555-555-555----|

Bridge
[ Tab from: http://www.guitartabs.cc/tabs/n/nofx/vincent_btab_ver_3.html ]
G|-----------------------------------------------------------------|
D|-----------------------------------------------------------------|
A|---------------------------------55555555-4444444-222222222222222|
E|000-000-000-0003-33-333333333333---------------------------------|

G|-----------------------------------------------------------------|
D|-----------------------------------------------------------------|
A|----5555555555555555---------------------------------------------|
E|0x32-----------------000-000-000-000-3-33-333333333333-----------|

Play fill 1x

Play verse 1x

Play bridge 1x

Bridge 2

G|-----------------------------------------------------------------------|
D|-----------------------------------------------------------------------|
A|5x32---------------------------------5-555555-3-333333-2-2222222-------|
E|-----0-00000000000005-55-55555555555-----------------------------0~~3~~|

G|------------------------------------------------|
D|------------------------------------------------|
A|5~3~2~~-----------------------------------------|
E|-------0-00000000000000033333333333333335-555555|

Play verse

Cool Don Mclean song, better Nofx cover. Send questions/comments to
stuporman_20@hotmail.com. Later.
Comments