Nofx - Vincent Chords & Tabs

 

Vincent Chords & Tabs

Nofx Chords & Tabs

Version: 2 Type: Bass Tab 0 ratings
1 star 2 stars 3 stars 4 stars 5 stars
comments

Vincent Bass Tab

Song: Vincent	
Band: NOFX
Album: Fat Wreck Volume 2
tabbed by: Albino
bbfan@bellatlantic.net
http://www.geocities.com/SunsetStrip/Stage/5367/tab.html



  Part 1:
G:---------------------------
D:---------------------------
A:--5>-----------------------
E:-----0>--3>--5>------------

  Part 2:
G:---------------------------
D:---------------------------
A:--5---5--5--5-5-5----------
E:---------------------------


  Part 3:
G:---------------------------
D:---------------------------
A:--------------5>-----------
E:--0>--3>--5>---------------

[ Tab from: http://www.guitartabs.cc/tabs/n/nofx/vincent_btab_ver_2.html ]
  Part 4:
G:------------------------------------
D:------------------------------------
A:----------5>--4>-2>-----5>----------
E:--0>--3>------------0>------0>--3>--


  Part 5:
G:-------------------------
D:-------------------------
A:--5---5--5--5-5-5-5------
E:-------------------------

  Part 6:
G:----------------------------------
D:----------------------------------
A:--5>----------5>--2>------5-3-2---
E:------0>--5>----------0-3---------



Do each part 1 time in this order:
part 1
part 2
part 3
part 2
part 3
part 4
part 1
part 5
part 3
part 5
part 3
part 4
part 6
part 3

This should be it. Send corrections and stuff to bbfan@bellatlantic.net

Comments