Nofx - Vanilla Sex Chords & Tabs

 

Vanilla Sex Chords & Tabs

Nofx Chords & Tabs

Version: 2 Type: Tab 0 ratings
1 star 2 stars 3 stars 4 stars 5 stars
comments

Vanilla Sex Tab

   
Band: NOFX
Song: Vanilla sex
Album: S&M Airlines
Transcriber: Robert Johnstone
Guitarists: Gtr 1-Al Bino, Gtr 2-Eric Melvin
Standard tuning

This song is cool as well as the Whole album a bit of NOFX'S early stuff
The song is in order

Am-0         C-0         Dm-0
       1             1                3
       2             0                2
       2             2                0
       0             3                0
       0             0                0

Repeat These Chords until singing starts:
Am C Am Dm

Now repeat those chords throughout the singing

Don't ever take away from me my pornography
Obviously we don't agree on what's obscene
I have the right what I want to see and read
Don't even try to take away from me my right to privacy
Because what I do is no ones business but me
[ Tab from: http://www.guitartabs.cc/tabs/n/nofx/vanilla_sex_tab_ver_2.html ]
Electric(faster than the chords)
E------------------------------|
B------------------------------|
G--5-5-5xxx7-7-7---------------|
D--5-5-5xxx7-7-7---------------|
A--3-3-3xxx5-5-5---------------|
E------------------------------|

E-----------------------------------|
B-----------------------------------|
G--5-5-5xxx7-7-7-----5---5r---------|
D--5-5-5xxx7-7-7-----5---5r---------|
A--3-3-3xxx5-5-5-----3---3r---------|
E-----------------------------------|

E------------------------------|
B------------------------------|
G--5-5-5xxx7-7-7---------------|
D--5-5-5xxx7-7-7---------------|
A--3-3-3xxx5-5-5---------------|
E------------------------------|

E-----------------------------------|
B-----------------------------------|
G--5-5-5xxx7-7-7-----5---5r---------|
D--5-5-5xxx7-7-7-----5---5r---------|
A--3-3-3xxx5-5-5-----3---3r---------|
E-----------------------------------|

E------------------------------------|
B------------------------------------|
G---x-x-x-x-x-x-x-x-x-x-x------------|
D---x-x-x-x-x-x-x-x-x-x-x------------|
A---x-x-x-x-x-x-x-x-x-x-x------------|
E------------------------------------|

Keys:
r- Let it ring
x-palm mute
That's the whole song except the solos I cannot tab solos I suck at it but not as much as NOFX SUCKS!
Comments