Nofx - Together On The Sand Chords & Tabs

 

Together On The Sand Chords & Tabs

Nofx Chords & Tabs

Version: 5 Type: Tab 0 ratings
1 star 2 stars 3 stars 4 stars 5 stars
comments

Together On The Sand Tab

Band: NOFX
Song: Together on the sand
Album: Ribbed
Guitarist: El hefe
Transcriber: Robert Johnstone

This song starts off kinda like some love song or something like that then when the 
start then its cool I thought this song sucked at first, but then I learned to like it and 
its one of the raddest songs!

Intro
Together on the sand...
E---12--14---12------10--12---10----8---10---8----7---9---7----------|
B---12----------------10--------------8--------------7---------------|Play once*
G---12----------------10--------------8--------------7---------------|
D--------------------------------------------------------------------|
A--------------------------------------------------------------------|
E--------------------------------------------------------------------|
[ Tab from: http://www.guitartabs.cc/tabs/n/nofx/together_on_the_sand_tab_ver_5.html ]
Chorus&verse
*                              *			        *                           *
E----5-5-5-5-5--5--5----4-4-4-4-4--4--4----3-----2-2-2-2-2--2--2----5-5-5----4-4--|
B----5-5-5-5-5--5--5----5-5-5-5-5--5--5----4-----3-3-3-3-3--3--3----6-6-6----5-5--|
G----4-4-4-4-4--4--4----6-6-6-6-6--6--6----5-----4-4-4-4-4--4--4----7-7-7----6-6--|
D---------------------------------------------------------------------------------|
A---------------------------------------------------------------------------------|
E---------------------------------------------------------------------------------|

Play the chorus&verse throughout the song until I say so

Together on the sand
We walked hand in hand
On the beachfront
She smiled at me
As she tightly held my hand
I had my fingers up her
Country music played on the radio
So I turned it off
We walked down to the water
As she grabbed onto my honker
A wave had swept us away

Outro
Uh ho ho....
E-----2-2-2-2-2--2--2--------4-4-4-4-4-4-4---------|
B-----3-3-3-3-3--3--3--------5-5-5-5-5-5-5---------|
G-----4-4-4-4-4--4--4--------6-6-6-6-6-6-6---------|
D--------------------------------------------------|
A--------------------------------------------------|
E--------------------------------------------------|

Such a short song but its cool so enjoy playing and I want to say this to NOFX:
Comments