Nofx - Together On The Sand Chords & Tabs

 

Together On The Sand Chords & Tabs

Nofx Chords & Tabs

Version: 4 Type: Tab 0 ratings
1 star 2 stars 3 stars 4 stars 5 stars
comments

Together On The Sand Tab

   
NOFX
RIBBED
TOGETHER ON THE SAND

KYLE B
ericmelvin69@hotmail
INTRO

e---12---14---12---10---12---10---8---10---8---7---9---7
B---12-------------10-------------8------------7--------
G---12-------------10-------------8------------7--------
D-------------------------------------------------------
A-------------------------------------------------------
E-------------------------------------------------------

THIS IS PLAYED WITH A DOWN UP DOWN STRUM PATTERN, ONLY USE YOUR INDEX
FINGER TO PLAY THE RAKE

RIFF 1
[ Tab from: http://www.guitartabs.cc/tabs/n/nofx/together_on_the_sand_tab_ver_4.html ]
e--5-5-5-5-5-5-5--4-4-4-4-4-4-4-4--3--2-2-2-2-2-2-2-2--5-5-5-5--4-4-4-4
B--5-5-5-5-5-5-5--5-5-5-5-5-5-5-5--4--3-3-3-3-3-3-3-3--6-6-6-6--5-5-5-5
G--6-6-6-6-6-6-6--4-4-4-4-4-4-4-4--3--2-2-2-2-2-2-2-2--5-5-5-5--4-4-4-4
D--7-7-7-7-7-7-7--6-6-6-6-6-6-6-6--5--4-4-4-4-4-4-4-4--7-7-7-7--6-6-6-6
A--7-7-7-7-7-7-7--4-4-4-4-4-4-4-4--3--2-2-2-2-2-2-2-2--5-5-5-5--4-4-4-4
E--5-5-5-5-5-5-5-------------------------------------------------------
   
RIFF 2

e--2-2-2-2-2-2-2--4-4-4-4-4-4-4--3--2
B--3-3-3-3-3-3-3--5-5-5-5-5-5-5--4--3
G--2-2-2-2-2-2-2--4-4-4-4-4-4-4--3--2
D--4-4-4-4-4-4-4--6-6-6-6-6-6-6--5--4
A--2-2-2-2-2-2-2--4-4-4-4-4-4-4--3--2
E------------------------------------

THIS IS A GREAT SONG TO PLAY AND EASY TO LEARN YOU JUST HAVE TO GET A 
GOOD STRUM PATTERN GOING AND YOU'VE CRACKED IT. ANY QUERIES OR INSULTS 
SEND TO THE ABOVE E-MAIL ADDRESS. THANKS FOR LISTENING.
===========TOGETHER IN THE SAND by NOFX (live version)

i don't have the lyrics, but they go something like this:
"together in the sand,
we walked hand in hand" or something like that...

the chords are (low2high):
A: XX7655
C#: X4665X
C: X3554X
B: X2443X
D: X5776X

they go in this progression: A C# C B D A C

I now its changes later, but this is the cewl part.

-andrew campbell.
Comments