Nofx - There She Goes Chords & Tabs

 

There She Goes Chords & Tabs

Nofx Chords & Tabs

Version: 2 Type: Tab 0 ratings
1 star 2 stars 3 stars 4 stars 5 stars
comments

There She Goes Tab

Artist: Nofx
Song: There she goes
tabbed by Coco
cocofuhgawz@hotmail.com


>>>ENJOY!!!<<<


e|---3---5---2---3----0---0---0---0------|
B|-3---3---3---3---3----3---3---3--------|
G|---------------------------------------|x7 times
D|---------------------------------------|
A|---------------------------------------|
E|---------------------------------------|


e|---3-5-3---3---3-5-3-5-3----2-2-2-2-2--|
B|-3-------3---3--------------3-3-3-3-3--|
G|----------------------------0-0-0-0-0--|
D|---------------------------------------|
A|---------------------------------------|
E|---------------------------------------|


e|---3---5---2---3----0---0---0---0-----|
B|-3---3---3---3---3----3---3---3-------|
G|--------------------------------------|x3 times
D|--------------------------------------|
A|--------------------------------------|
E|--------------------------------------|


e|---3-5-3---3---3-5-3---3---3-5-3---3-5-3-5-3-5-3--2-2-2-2-2--|
B|-3-------3---3-------3---3-------3----------------3-3-3-3-3--|
G|--------------------------------------------------0-0-0-0-0--|
D|-------------------------------------------------------------|
A|-------------------------------------------------------------|
E|-------------------------------------------------------------|



e|---3---5---2---3----0---0---0---0-----|
B|-3---3---3---3---3----3---3---3-------|
G|--------------------------------------|x3 times
D|--------------------------------------|
A|--------------------------------------|
E|--------------------------------------|


e|---3-5-3---3---3-5-3---3---3-5-3---3-5-3-5-3-5-3--2-2-2-2-2--|
B|-3-------3---3-------3---3-------3----------------3-3-3-3-3--|
G|--------------------------------------------------0-0-0-0-0--|
D|-------------------------------------------------------------|
A|-------------------------------------------------------------|
E|-------------------------------------------------------------|


e|---3---5---2---3----0---0---0---0-----|
B|-3---3---3---3---3----3---3---3-------|
G|--------------------------------------|x3 times
D|--------------------------------------|
A|--------------------------------------|
E|--------------------------------------|

[ Tab from: http://www.guitartabs.cc/tabs/n/nofx/there_she_goes_tab_ver_2.html ]
e|---3-5-3---3---3-5-3---3---3-5-3---3-5-3-5-3-5-3--2-2-2-2-2--|
B|-3-------3---3-------3---3-------3----------------3-3-3-3-3--|
G|--------------------------------------------------0-0-0-0-0--|
D|-------------------------------------------------------------|
A|-------------------------------------------------------------|
E|-------------------------------------------------------------|


e|-----|-----|-----|-----|-------|
B|--1--|--3--|--1--|--3--|--3----|
G|--0--|--0--|--0--|--0--|--0----|
D|--2--|--2--|--2--|--2--|--4-X2-|
A|--3--|--3--|--3--|--3--|--5----|
E|-----|-----|-----|-----|-------|


e|---3-5-3---3---3-5-3---3---3-5-3---3---3-5-3-|
B|-3-------3---3-------3---3-------3---3-------|
G|---------------------------------------------|
D|---------------------------------------------|
A|---------------------------------------------|
E|---------------------------------------------|


e|-3---55555555--3---55555555--3---55555555--3----2-2-2-2-2--|
B|---3-------------3-------------3-------------3--3-3-3-3-3--|
G|------------------------------------------------0-0-0-0-0--|
D|-----------------------------------------------------------|
A|-----------------------------------------------------------|
E|-----------------------------------------------------------|


e|---3---5---2---3----0---0---0---0-----|
B|-3---3---3---3---3----3---3---3-------|
G|--------------------------------------|x3 times
D|--------------------------------------|
A|--------------------------------------|
E|--------------------------------------|


e|---3-5-3---3---3-5-3---3---3-5-3---3-5-3-5-3-5-3--2-2-2-2-2--|
B|-3-------3---3-------3---3-------3----------------3-3-3-3-3--|
G|--------------------------------------------------0-0-0-0-0--|
D|-------------------------------------------------------------|
A|-------------------------------------------------------------|
E|-------------------------------------------------------------|


e|---3---5---2---3---22222--------------|
B|-3---3---3---3---3--------------------|
G|--------------------------------------|x2 times
D|--------------------------------------|
A|--------------------------------------|
E|--------------------------------------|


End
e|----2-----|
B|-3--3-----|
G|----------|
D|----------|
A|----------|
E|----------|


Any comments or additions, please e-mail me to cocofuhgawz@hotmail.com
Comments