Nofx - Theme From Nofx Album Chords & Tabs

 

Theme From Nofx Album Chords & Tabs

Nofx Chords & Tabs

Version: 2 Type: Tab 0 ratings
1 star 2 stars 3 stars 4 stars 5 stars
comments

Theme From Nofx Album Tab

THEME FROM A NOFX ALBUM - Nofx

Tabbed by : Ele 

e|-------------------------------------------------------------------------|
B|-------------------------------------------------------------------------|
G|-----------7-7-7-7--9-9-9-9-9------------7-7-7-7--9-9-9-9-9--------------|
D|--7-7-7-7--7-7-7-7--9-9-9-9-9-7-7-7-7-7--7-7-7-7--9-9-9-9-9---7----------|
A|--7-7-7-7--5-5-5-5--7-7-7-7-7-7-7-7-7-7--5-5-5-5--7-7-7-7-7---7----------|
E|--5-5-5-5---------------------5-5-5-5-5-----------------------5----------|
    <----------------------------p.m.----------------------->

Solo Melvin:    <=slide up    >=many times   b=bend down
e|------------------------------------10>-----------------------------------|
B|---10h11-10-11-11-10-11-10-11-10-11----12>-10>---------------------12b----|
G|----------------------------------------------12>-10>-----------10--------|
D|-----------------------------------------------------12>-10>-12>----------|
A|--------------------------------------------------------------------------|
E|-<------------------------------------------------------------------------|

Solo El Hefe:      h= hammer on     r= pause
e|---------------------------------------12\14-14r-14r-14r-14r-14r-12---------
B|-----------12--12-10----------10--10-8------------------------------14-12---
G|-11---11h13---------13-9--9h11----------------------------------------------
D|-----\-------/-----------\------/-------------------------------------------
A|---------x3-----------------x3----------------------------------------------
E|----------------------------------------------------------------------------
[ Tab from: http://www.guitartabs.cc/tabs/n/nofx/theme_from_nofx_album_tab_ver_2.html ]
e|----------------------------------|
B|--------13-12-14>-12-------14b----|
G|--12h14--------------14-12--------|
D|----------------------------------|
A|----------------------------------|
E|----------------------------------|

...
My name is Fat Mike...............

Verse  <= slide up                      Small solo:
e|--------------------------------|     e|----------------------|
B|--------------------------------|     B|---19b18-19b18-19-----| 
G|------------7-7-7-7--9-9-9-9-9--|     G|----------------------|
D|---7-7-7-7--7-7-7-7--9-9-9-9-9--|     D|----------------------|
A|---7-7-7-7--5-5-5-5--7-7-7-7-7--|     A|----------------------|
E|-<-5-5-5-5----------------------|     E|----------------------|

Verse x2
e|-------------------------------------------------------------------------|
B|-------------------------------------------------------------------------|
G|-----------7-7-7-7--9-9-9-9-9------------7-7-7-7--9-9-9-9-9--------------|
D|--7-7-7-7--7-7-7-7--9-9-9-9-9-7-7-7-7-7--7-7-7-7--9-9-9-9-9---7-7-7------|
A|--7-7-7-7--5-5-5-5--7-7-7-7-7-7-7-7-7-7--5-5-5-5--7-7-7-7-7---7-7-7------|
E|--5-5-5-5---------------------5-5-5-5-5-----------------------5-5-5------|

Singing...  Singing...  Singing...
e|--------------------------------|
B|--------------------------------|
G|-------------7-----------9------|
D|---7---------7-----------9------|
A|---7---------5-----------7------|
E|---5----------------------------| 

Verse x2
e|-------------------------------------------------------------------------|
B|-------------------------------------------------------------------------|
G|-----------7-7-7-7--9-9-9-9-9------------7-7-7-7--9-9-9-9-9--------------|
D|--7-7-7-7--7-7-7-7--9-9-9-9-9-7-7-7-7-7--7-7-7-7--9-9-9-9-9---7-7-7--7---|
A|--7-7-7-7--5-5-5-5--7-7-7-7-7-7-7-7-7-7--5-5-5-5--7-7-7-7-7---7-7-7--7---|
E|--5-5-5-5---------------------5-5-5-5-5-----------------------5-5-5--5---|
Comments