Nofx - The Separation Of Church And Skate Chords & Tabs

 

The Separation Of Church And Skate Chords & Tabs

Nofx Chords & Tabs

Version: 1 Type: Tab 0 ratings
1 star 2 stars 3 stars 4 stars 5 stars
comments

The Separation Of Church And Skate Tab

Song -The Separation of Church and Skate 
Artist - NOFX(The greatest Punk band of ALL TIME)
Album - The War On Errorism (Track #1)/The Greatest Songs Ever Written, By Us

There aint a tab for this already so I thought I'd put one up for it, hope yous like it.

Intro 
(Guitar 1)
e|-------------------------------------------------------------------------| 
B|-------------------------------------------------------------------------| 
G|-------------------------------------------------------------------------| 
D|--------------------------------------------x8---------------------------| 
A|0-5-3h3h5h3-0-5-3h3h5h3-0-5-3h3h5h3-7-0-6-0------------------------------| 
E|-------------------------------------------------------------------------| 

(Guitar 2)
e|-------------------------------------------------------------------------| 
B|-------------------------------------------------------------------------| 
G|--------5---------------7------------------------------------------------| 
D|7-------5-------5-------7------------------------------------------------| 
A|7-------3-------5-------5------------------------------------------------| 
E|5---------------3--------------------------------------------------------| 

Verse
e|-------------------------------------------------------------------------| 
B|-------------------------------------------------------------------------| 
G|----------------10-10-10-10----------------------------------------------| 
D|7-7-7-7-7-7-7-7-10-10-10-10-10-10-10-10-5-5-5-5-5-5-5-5---7----7---------| 
A|7-7-7-7-7-7-7-7-8--8--8--8--10-10-10-10-5-5-5-5-5-5-5-5---7----7---------| 
E|5-5-5-5-5-5-5-5-------------8--8--8--8--3-3-3-3-3-3-3-3---5----5---------| 

Chorus
e|-------------------------------------------------------------------------|
B|-------------------------------------------------------------------------|
G|----------------10------------------------------------10-----------------|
D|-7--------------10-----------10-----5-6-----7---------10-----10--7-------|
A|-7--------------8------------10-----5-6-----7---------8------10--7-------|
E|-5---------------------------8------3-4-----5----------------8---5-------|
[ Tab from: http://www.guitartabs.cc/tabs/n/nofx/the_separation_of_church_and_skate_tab.html ]
e|-------------------------------------------------------------------------|
B|-------------------------------------------------------------------------|
G|-9--10-------------------------------------------------------------------|
D|-9--10-------------------------------------------------------------------|
A|-7--8--------------------------------------------------------------------|
E|-------------------------------------------------------------------------|

Bridge
e|-5------1------3------1-------------1------0-----------------------------|
B|-5------3------3------3------1------1------1-----------------------------|
G|-5------2-------------2------2------2------0-------------10--------------|
D|-----------------------------2------------------7--------10--------------|
A|------------------------------------------------7--------8---------------|
E|------------------------------------------------5------------------------|

Solo
e|--12-12-10-----12-10----------12-10--------------------------------------|
B|----------13-10-----13-13h17~------13-13-10-13-10-13-10--^8^-------------|
G|-------------------------------------------------------------------------|
D|-------------------------------------------------------------------------|
A|-------------------------------------------------------------------------|
E|-------------------------------------------------------------------------|

e|-------------------------------------------------------------------------|
B|------------------------10-----------------------------------------------|
G|--10-7-10-7-10-7-10-12---------------------------------------------------|
D|-----------------------------10-7-10-7-----------------------------------|
A|-------------------------------------------------------------------------|
E|-------------------------------------------------------------------------|

Outro
e|-------------------------------------------------------------------------| 
B|-------------------------------------------------------------------------| 
G|-------------------------------------------------------------------------| 
D|-------------------------x4----7--7--7--7--------------------------------| 
A|0-00-3^p0------0-3^p0----------7--7--7--7--------------------------------| 
E|----------3^-2--------3--------5--5--5--5--------------------------------|
Comments