Nofx - The Longest Line Chords & Tabs

 

The Longest Line Chords & Tabs

Nofx Chords & Tabs

Version: 4 Type: Tab 0 ratings
1 star 2 stars 3 stars 4 stars 5 stars
comments

The Longest Line Tab

This is my first tab and its pretty good
song: longest line
Band: Nofx

tabbed by: cal
Verses (just play this 8 times except last to chordes play them twice)

E|------------------------------------------------------------|
B|------------------------------------------------------------|
D|---5------------------------5-------------------------------|
G|---5----5----7--------5-----5-------5------3---------7--5---|
A|---3----5----7--------5-----3-------5------3---------7--5---|
E|--------3----5--------3-------------3------1---------5--3---|

Bridge

[ Tab from: http://www.guitartabs.cc/tabs/n/nofx/the_longest_line_tab_ver_4.html ]
E|-------------------------------------------------------------|
B|-------------------------------------------------------------|
D|-------------------------------------------------------------|
G|--3----------5---------------7---------------8---------------|
A|--3----------5---------------7---------------8---------------|
E|--1----------3---------------5---------------6---------------|

Chorus

E|--------------------------------------------------------------|
B|--------------------------------------------------------------|
D|---5--------------------------5----7----10--------------------|
G|---5-----5-----7----2----3----5----7----10--------------------|
A|---3-----5-----7----2----3----3----5-----8--------------------|
E|---------3-----5----0----1------------------------------------|

 Solo
e------------------------------------8-----------|
b--------------------------75--8--10---10--------|
g------------------------5---5-------------------|
d-55-32-------232-----57-------------------9-10--|
a-------55-35-----525----------------------------|
E------------------------------------------------|
Comments