Nofx - The Longest Line Chords & Tabs

 

The Longest Line Chords & Tabs

Nofx Chords & Tabs

Version: 3 Type: Tab 0 ratings
1 star 2 stars 3 stars 4 stars 5 stars
comments

The Longest Line Tab

---------------------------------------------------------------------------
			   THE LONGEST LINE - NOFX
---------------------------------------------------------------------------
Tabbed by: Ve Still


Verse:  *=Play x8    **= Play x16
e|----|-------------------Palm Mute--------------------|------------------|
B|------------------------------------------------------------------------|
G|-5--5*-----------------------5*-----------------------------------------|
D|-5--5*------5*------7**------5*------5*------3*--3--3----0-7--5-0-------|
A|-3--3*------5*------7**------3*------5*------3*--3--3----0-7--5-0-------|
E|------------3*------5**--------------3*------1*--1--1----0-5--3-0-------|

Bridge:  :=Let Ring
e|------------------------------------------------------------------------|
B|------------------------------------------------------------------------|
G|------------------------------------------------------------------------|
D|-3--------5--------7--------8-------------------------------------------|
A|-3--------5--------7--------8-------------------------------------------|
E|-1--------3--------5--------6-------------------------------------------|
[ Tab from: http://www.guitartabs.cc/tabs/n/nofx/the_longest_line_tab_ver_3.html ]
Chorus
e|----------------------------Palm Mute-----------------------------------|
B|------------------------------------------------------------------------|
G|-5*--------------5*--7*--8*---------------------------------------------|
D|-5*--5*--7*--2*--5*--7*--8*---------------------------------------------|
A|-3*--5*--7*--2*--3*--5*--6*---------------------------------------------|
E|-----3*--5*--0*---------------------------------------------------------|

Solo
e|------------------------------------------------5v-8-5------------------|
B|----------------------------------------6-5---8----7---5--5-3-5---------|
G|--------------------------------------5-----5---------------------------|
D|-5--3-2--------------2--3--2------5-7-----------------------------------|
A|----------5--3--5-------------5-3---------------------------------------|
E|------------------------------------------------------------------------|

Verse 2:  *=Play x8    **= Play x16                       |    End on     |
e|----|-------------------Palm Mute-----------------------|---------------|
B|--------------------------------------------------------|---------------|
G|-5--5*-----------------------5*-------------------------|-------5-------|
D|-5--5*------5*------7**------5*------5*------3*-------5*|-------5-------|
A|-3--3*------5*------7**------3*------5*------3*-------5*|-------3-------|
E|------------3*------5**--------------3*------1*-------3*|---------------|

Order:
Verse x2
Bridge
Verse x2
Bridge
Chorus
Solo
Verse 
Verse 2
Chorus x2
End

Note: This is a really easy song to play. Perfect for beginners, and it sounds
good to. I think this tab is 100% correct. If not you can just listen to the
song to get it right, because all the chords are correct.
============================================================================
Comments