Nofx - The Longest Line Chords & Tabs

 

The Longest Line Chords & Tabs

Nofx Chords & Tabs

Version: 1 Type: Chords 0 ratings
1 star 2 stars 3 stars 4 stars 5 stars
comments

The Longest Line Chords

#----------------------------------PLEASE NOTE--------------------------------#
#This file is the author's own work and represents their interpretation of the#
#song. You may only use this file for private study, scholarship, or research.#
#-----------------------------------------------------------------------------#

Date: Sat, 9 May 1998 17:56:57 
From: Brian Hinze 
Subject: n/nofx/the_longest_line.crd

band:NOFX
album:The Longest Line
song: The Longest Line
label: Fat Wreck-chords
tabbed by Brian Hinze
hinz0029@tc.umn.edu

this is "the longest line", it^Òs off of their
kind-of rare cd, the same one with "kill all
da white man"

VERSE^×all chords in verse are low distortion. You
can also muffle the bass string instead.
[ Tab from: http://www.guitartabs.cc/tabs/n/nofx/the_longest_line_crd.html ]
listen to song for time and strumming
E------------------------------------
B------------------------------------
G--5------------5--------------5-----
D--5--5--7--5---5--5--3--7--5--5-----
A--3--5--7--5---3--5--3--7--5--3-----
E-----3--5--3------3--1--5--3--------

CHORUS-full distortion

E------------------------------------
B------------------------------------
G--5--------------5--7--10--------------
D--5--5--7--2--3^×-5--7--10--------------
A--3--5--7--2--3^×-3--5---8--------------
E-----3--5--0--1---------------------

SOLO-full distortion, listen for timing
every individual note is listed

E------------------------------------------8---------------
B-------------------------------6-5---8-10---10-8----------
G-----------------------------5-----5----------------------
D--5-3-2-------2-3-2------5-7---------------------9-10-10-9
A--------5-2-5-------5-2-----------------------------------
E----------------------------------------------------------

that^Òs it, all power-chords, have fun




Comments