Nofx - The Desperations Gone Chords & Tabs

 

The Desperations Gone Chords & Tabs

Nofx Chords & Tabs

Version: 3 Type: Bass Tab 0 ratings
1 star 2 stars 3 stars 4 stars 5 stars
comments

The Desperations Gone Bass Tab

Intro
G|---------------------------0---0---0---------|
D|*---10---10---10---9---7---------------3---2-|
A|*-0----0----0----0---0---3---3---3---3---3---|
E|---------------------------------------------|

G----0---0---0-------------------------------|
D----------------3---2---6---6---6---7---9--*|
A-------------------------------------------*|
E--3---3---3---3---3---0---0---0---0---0-----|

Last time
G|--------------------------0---0---0---------|
D|---10---10---10---9---7---------------3---2-|
A|-0----0----0----0---0---3---3---3---3---3---|
E|--------------------------------------------|
[ Tab from: http://www.guitartabs.cc/tabs/n/nofx/the_desperations_gone_btab_ver_3.html ]
G----0---0---0-------------------------------|
D----------------3---2---6---6---6---6-------|
A--------------------------------------------|
E--3---3---3---3---3---0---0---0---0---------|

G|--------------------------------------------|
D|*-------------------------------------------|
A|*------10>----8>----8>10>-------8>----------|
E|--5>-8>---10>----8>------8>7>5>-------------|

improvise over this part
G--------------------------------------------|
D--10>------10>-----------------------------*|
A-------8>-------8>-------------------------*|
E--------------------(8)---------------------|
                     2nd time
Comments