Nofx - The Decline Chords & Tabs

 

The Decline Chords & Tabs

Nofx Chords & Tabs

Version: 1 Type: Bass Tab 0 ratings
1 star 2 stars 3 stars 4 stars 5 stars
comments

The Decline Bass Tab

-------------------------------------------------------------------------------
			     The Decline - NOFX
-------------------------------------------------------------------------------

By:Kent Riemondy(axion270@hotmail.com) suggestions on some parts please! 
Yes thats right boys and girls this is the decline
Fat Mike uses a few effects pedals in this 
this is long....very long
I'm preety sure about most of this
Intro: 
G|---------------------------------------------------------------------------|
D|----3---5---------------------5-----------------------5-----------ROCK MAN!|
A|------3--------3--5--3-----3-----3-----3--5--3-----3-----3-----3--5--------|
E|--5---------5-----------5-----------5-----------5-----------5--------------|

G|---------------------------------------------------------------------------|
D|-------------------------------------------------------------2---------5---|
A|----3--5--3-----3--5--3-----3--5--3-----3--5--------3--5--3----3-5-3-3---5-|
E|-5-----------5-----------5-----------5--------5--5-------------------------|


G|---------------------------------------------------------------------------|
D|-----------------------------------------------3--3--3----------5--5--5----|
A|-----------------------------5--5--5--------------------3--3--3------------|
E|--5--5--5--5--5--5--5--5--5-----------5--5--5------------------------------|

G|---------------------------------------------------------------------------|
D|---------------------------------------------------------------------------|
A|--3--3--3--3--3--3--3--3--2--2--2--2--2--2--2--2--2--1--1--1--1--1---------|
E|---------------------------------------------------------------------------|

G|--------------------------------------------------------BLAME IT ON!-------|
D|----------------------------------3--3--3--3--3------------3--3--3---------|
A|-1--1--1--1--1--1----------------------------------------------------------|
E|-------------------5--5--5--5--5-----------------5--5--5-----------5--5--5-|

G|---------------------------------------------------------------------------|
D|--------------3--3--3--3--3----------3--3--3--3--3--3--3--3----------------|
A|-----------------------------3--3--3------------------------3--3--3--3--3--|
E|--5--5--5--5---------------------------------------------------------------|

G|---------------------------------------------------------------------------|
D|----------5--5--5--5--5--5--------------------3--3--3--3--3--3--3--3--3----|
A|-3--3--3--------------------1--1--1--1--1--1-------------------------------|
E|---------------------------------------------------------------------------|

G|--------------------------------------------------1--1--1--1--1--1--1--1---|
D|-----------------------------------3--3--3--3--3---------------------------|
A|--3--3--3--3--3--3--3--3--3--3--3------------------------------------------|
E|---------------------------------------------------------------------------|

G|-----------------------------------------------1--1--1--1--1--1--1---------|
D|----------------------------3--3--3---3--3--3------------------------------|
A|--3--3--3--3--3--3--3--3--3------------------------------------------------|
E|---------------------------------------------------------------------------|

G|---------------------------------------------------------------------------|
D|--------------5--5--5--5--5--5--------------------3--3--3--3--3--3--3--3---|
A|--3--3--3--3---------------------------------------------------------------|
E|--------------------------------5--5--5--5--5--5---------------------------|

G|---------------------------------------------------------------------------|
D|--3--3--3-----------5--5--5--3--3--3---3--3--2--2--2----3--5--2---3--5--2--|
A|-----------3--3--3---------------------------------------------------------|
E|------------------------------------------------------5---------5----------|

G|---------------------------------------------------------------------------|
D|-------------------5--5--5----------------------------3--3--3-------5--5--5|
A|----------------------------3--3--3--2--2--2-----------------3--3--3-------|
E|-5--5--5--5--5--5-----------------------------5--5--5----------------------|

G|---------------------------------------------------------------------------|
D|-------------------------------------3--3--3--3--3--3----------------------|
A|--5--5--5--5--5--5-------------------------------------3--3--3-------------|
E|--------------------5--5--5--5--5--5---------------------------------------|

G|---------------------------------------------------------------------------|
D|--3--3--3--3--3----------5--5--5--3--3--3--3--3----------------------------|
A|-----------------3--3--3---------------------------------------------------|
E|---------------------------------------------------------------------------|

G|---------------------------------------------------------------------------|
D|--------------------------3--3--3--3--3--3--3--3--3--3--5--5--5--5--5--5---|
A|---------------------------------------------------------------------------|
E|---5--5--5--5--5--5--5--5--------------------------------------------------|

G|--------------------|
D|-----6--5--4--3--2--|
A|--5-----------------|
E|--------------------|

G|---------------------------------------------------------------------------|
D|-------------------------3--3--3--3--3--3--3--3--3--3--5--5--5--5--5-------|
A|---------------------------------------------------------------------------|
E|--5--5--5--5--5--5--5--5---------------------------------------------5-5-5-|

G|---------------------------------------------------------------------------|
D|--------------3--3--3--3--3--3--3--3--3--3--3--3--3--3---------------------|
A|--------------------------------------------------------3--3--3--3--3--3---|
E|---5--5--5--5--------------------------------------------------------------|

G|---------------------------------------------------------------------------|
D|---------------------------------------------------------------------------|
A|-3--3--3--3--3--3--3--3--3--3--3--3--3--3--5--5--5--5--5--5--5--5----------|
E|---------------------------------------------------------------------------|
[ Tab from: http://www.guitartabs.cc/tabs/n/nofx/the_decline_btab.html ]
G|---------------------------------------------------------------------------|
D|---------------------------------------------------------------------------|
A|---5--5--5--5--5--5--5--5--5--5--5--5--5--5--5--5--5--3--3--3--3--3--3--3--|
E|---------------------------------------------------------------------------|

G|---------------------------------------------------------------------------|
D|---------------------------------------------3--3--3-----------------------|
A|---3--3--3--3--3--3--3--3--3--3--3--3--3--3----3--3--3--5---5-3-3-5-3-5-3-5|
E|----------------------------------------------------------5----------------|

G|---------------------------------------------------------------------------|
D|---------------------------------------------------------------------------|
A|----5--5--5--5--5--5----------3--3--3--3--3--3---3-5-3-5-3-5---------------|
E|----------------------5--5--5----------------------------------------------|

G|---------------------------------------------------------------------------|
D|---------------------------------------------------------------------------|
A|---5--5--5--5--5--5--5-----------3--3--3--3--3---3-5-3-5-3-5---------------|
E|------------------------5--5--5--------------------------------------------|

G|---------------------------------------------------------------------------|
D|--2--2--2--2--2--2--2--1--1--1--1--1--1--1--1--1-------------2-----2-----2-|
A|--------------------------------------------------5--5--5------------------|
E|-----------------------------------------------------------5----5-----5----|

G|---------------------------------------------------------------------------|
D|--2--2--2--2--2--1--1--1--1--1--1------------------------------------------|
A|-----------------------------------5--5--5--5--5---------------------------|
E|---------------------------------------------------------------------------|

G|---------------------------------------------------------------------------|
D|--------------------------------2-----2------------------------------------|
A|-5--5--5--5--5--5--5--5--5-------------------------------------------------|
E|-----------------------------5-----5-----5---------------------------------|

G|---------------------------------------------------------------------------|
D|-----4-6-4---6-4-----4-6-4--4-6-4-6-4----7-7-7-7--7-6-4--7-7-7-7-6-4-------|
A|---7-- ----7-------7-------7-----------7------------------------------------|
E|---------------------------------------------------------------------------|

G|---------------------------------------------------------------------------|
D|---4-6-4-----------------------4------------6-6-7-7-6-4--------------------|
A|-7-------7-4---7-4---4-7-4-7-----7-4-7--7-7-------------7------------------|
E|-------------7-----7-------------------------------------------------------|


G|---------------------------------------------------------------------------|
D|--2--2--2--2--2--2--2--2-------------------2--2--2--2--2-------------------|
A|-----------------------------------------------------------4--4--4--4------|
E|--------------------------5--5--5--4--4--4---------------------------------|

G|---------------------------------------------------------------------------|
D|---4--4--4--4--4--4-----------------2--2--2--2--1--1--1--------------------|
A|---------------------2--2--2--2--2-----------------------4--4--4--2--2--2--|
E|---------------------------------------------------------------------------|

G|---------------------------------------------------------------------------|
D|--------------2--2--2--2--2------------------------------------------------|
A|----------------------------------------------2--2--2--2--2----------------|
E|--5--5--5--5------------------5--5--5--5--5--------------------------------|

G|---------------------------------------------------------------------------|
D|--2--2--2--2--2------------------------------------------------------------|
A|---------------------------------------------------------------------------|
E|------------------5--5--5--5--4--4--4--4--4--------------------------------|

G|---------------------------------------------------------------------------|
D|--2--2--2--2--2-------------------4--4--4--4--4--4--4----------------------|
A|-----------------4--4--4--4--4--4----------------------2--2--2--2----------|
E|---------------------------------------------------------------------------|

G|---------------------------------------------------------------------------|
D|--2--2--2--1--1--1--1------------------------------------------------------|
A|-----------------------4--4--4--2--2--2--2---------------------------------|
E|---------------------------------------------------------------------------|

G|---------------------------------------------------------------------------|
D|---------------2--2--2--2-------------------------------------2--2--2--2---|
A|------------------------------------------2--2--2--2--2--2--2--------------|
E|---5--5--5--5--------------5--5--5--5--5-----------------------------------|

G|---------------------------------------------------------------------------|
D|---------------------------------------------------------------------------|
A|---5--5--5--5--5--5--5--5--4--4--4--4--4--4--------------------------------|
E|---------------------------------------------5--5--5--5--5--5--------------|

G|---------------------------------------------------------------------------|
D|------------------------2----2----------------repeat except dont do slide--|
A|-----------------------------------2---------------------------------------|
E|-5--5--5--5--5--5--5--5----5----5----0slide5-------------------------------|

G|---------------------------------------------------------------------------|
D|-----2----------2----------------------------------2----------2------------|
A|---------------------------------------------------------------------------|
E|------------------------------5----------5---------------------------------|

G|---------------------------------------------------------------------------|
D|-------2-------------2-----------2-----------------------------------------|
A|---------------------------------------------------------------------------|
E|--------------------------------------------5--------5----------5----------|

G|---------------------------------------------------------------------------|
D|---2---2---2--2-----------------------------------2--2--2--2--2------------|
A|------------------3---3--3---------------------------------------3--3--3---|
E|----------------------------5--5--5--5-------------------------------------|

G|-------------------------------------|--------repeat this part a few times-|
D|--------------------------
Comments