Nofx - The Brews Chords & Tabs

 

The Brews Chords & Tabs

Nofx Chords & Tabs

Version: 3 Type: Bass Tab 0 ratings
1 star 2 stars 3 stars 4 stars 5 stars
comments

The Brews Bass Tab

-------------------------------------------------------------------------------
			     the brews - NOFX
-------------------------------------------------------------------------------

By:giorgio

after the guitar intro"Friday night will-be drinkin..." play the chorus
"We are the brews..."that is so:

G|---------------------------------------------------------------------------|
D|---------------------------------------------------------------------------|
A|--------------------------55-5-5-5----------------55-5-5-5-----------------|
E|--33-3-3-333-3-3-355-5-5-5--------33-3-3-355-5-5-5-------------------------|

after the chorus play the verse"Orthopedic-dr martins good..."
that's so(do for three times):
[ Tab from: http://www.guitartabs.cc/tabs/n/nofx/the_brews_btab_ver_3.html ]
G|---------------------------------------------------------------------------|
D|---------------------------------------------------------------------------|
A|--33-3-3-333-3-3-3---------------------------------------------------------|
E|------------------33-3-3-333-3-3-311-1-1-111-1-1-133-3-3-333-3-3-3---------|

and now is the time of interlude"We got the might..."-repeat this four times-
that's so:

G|---------------------------------------------------------------------------|
D|--------------------------55-5-5-5-----------------------------------------|
A|--55-5-5-5--------77-7-7-7-------------------------------------------------|
E|----------55-5-5-5---------------------------------------------------------|

and then chorus and then a lot of fuckin noises and rising up and farts and
what you want and then again chorus

I'm pretty sure about this tab and i have seen Fat Mike playin this at the
concert in Bologna and so enjoy it.If you wanna e-mail:"freepunkers@libero.it
===============================================================================
Comments