Nofx - Thank God Its Monday Chords & Tabs

 

Thank God Its Monday Chords & Tabs

Nofx Chords & Tabs

Version: 2 Type: Bass Tab 0 ratings
1 star 2 stars 3 stars 4 stars 5 stars
comments

Thank God Its Monday Bass Tab

Song: Thank God its Monday
Band: Nofx
Album: Pump up the Valuum

h=hammer on
>=strum

Intro:
G:------------------------------------------------------------------
D:------------------------------------------------------------------
A:-----0-h-1-1-1-1-1-0-----0-h-1-1-1-0---0-h-1-1-1-1-1-0-----0-h-1-1
E:-1-1-----------------1-1-------------1-----------------1-1--------

Verse:
G:------------------------------------------------------------------
D:------------------------------------------------------------------
A:----3>----5>--1>--3>----------------------------------------------
E:-1>----1>---------------------------------------------------------

Fill:
G:------------------------------------------------------------------
D:------------------------------------------------------------------
A:-----0-h-1-1-1-1-1-0-----0-h-1-1----------------------------------
E:-1-1-----------------1-1------------------------------------------

Verse:
G:------------------------------------------------------------------
D:------------------------------------------------------------------
A:----3>----5>--1>--3>----------------------------------------------
E:-1>----1>---------------------------------------------------------
[ Tab from: http://www.guitartabs.cc/tabs/n/nofx/thank_god_its_monday_btab_ver_2.html ]
Fill:
G:------------------------------------------------------------------
D:------------------------------------------------------------------
A:-----0-h-1-1-1-1-1-0-----0-h-1-1----------------------------------
E:-1-1-----------------1-1------------------------------------------

next part:
G:------------------------------------------------------------------
D:------------------------------------------------------------------
A:-5>--3>--5>--3>---------------------------------------------------
E:-----------------3>-----------------------------------------------

verse 2 (in the next key):
G:------------------------------------------------------------------
D:------------------------------------------------------------------
A:----5>----7>--3>--5>----------------------------------------------
E:-3>----3>---------------------------------------------------------

next part 2:
G:------------------------------------------------------------------
D:------------------------------------------------------------------
A:--------------------------5(let ring)-----------------------------
E:--3>--1>--0>--3>--1>--0>------------------------------------------

End:
G:------------------------------------------------------------------
D:------------------------------------------------------------------
A:------------------------------------------------------------------
E:-0--1--3----------------------------------------------------------

That should be it.  Quite a cool song, it is quite fast.
Sorry for not tabbing it earlier.
Tabbed by Rob dreamweaver@users.basstabarchive.com  For Buster.
Corrections, Comments requests - email me. 
Comments