Nofx - Stranger Than Fishin Chords & Tabs


Stranger Than Fishin Chords & Tabs

Nofx Chords & Tabs

Version: 1 Type: Bass Tab 0 ratings
1 star 2 stars 3 stars 4 stars 5 stars

Stranger Than Fishin Bass Tab

Stranger than fishin
Pump up the Valuum
Tabbed by: Carlo Berdejo

*The times that you play the notes in the
the chorus and the bridge are not accurate.
Just strum and figure it out, it's not hard.*

Verse x3  (Play to rythm)
G -------------------------------
D -------------------------------
A 5-5--5-------------------------
E -------0-0--0---7--7-7--7--7-7-

Verse variation x1 (Play to rythm)
G ------------------------------
D ------------------------------
A 5-5--5--0-0--0----------------
E ---------------3--3-3--3--3-3-

Play Verse x1
[ Tab from: ]
Chorus (I ain't no musician...)       %= pause
G ------------------------------------------------------|-----EXTRA-----|
D ------------------------------------------------------|---------------|
A 5-5-5-5-5-5/12-12-12-12-12-12\10-10-10-10-10-10-10-10\|%%%%%%-5/12\-5-|
E ------------------------------------------------------|---------------|

Play Verse x1
Play Verse Variation x1
Play Verse x1
Play Chorus x1 (Without the EXTRA part)
Play Verse 1 x2

Bridge x1  (Yeah, I know...)  *Strum*
G ----------------------------------------------------
D ----------------------------------------------------
A -------------5-----------/7-----------/10-----------
E -3--------------------------------------------------

Play Verse x3
Play Verse Variation x1 ...... and your done!

Comments? email me at