Nofx - Straight Edge Chords & Tabs

 

Straight Edge Chords & Tabs

Nofx Chords & Tabs

Version: 2 Type: Tab 0 ratings
1 star 2 stars 3 stars 4 stars 5 stars
comments

Straight Edge Tab







this is my first tie tabing so i hope it's right



e>---13--13--13-----16--13------------13-----------------------------
b>---------------13---------------13------16--13---------------------
g>--------------------------15^15----------------15----13----13----13
d>--------------------------------------------------------15----15---
a>-------------------------------------------------------------------
a>-------------------------------------------------------------------

[ Tab from: http://www.guitartabs.cc/tabs/n/nofx/straight_edge_tab_ver_2.html ]
e>--------------13--11-----------------------------------------------
b>-----------13--------13--13--13--15----13------------13------------
g>-13--13--14-------------------------15----15--13--15---------------
d>---------------------------------------------------------15--------
a>-------------------------------------------------------------------
e>-------------------------------------------------------------------
      play this line extra fast

e>---------------------------------------------------------13--13----
b>---13------------------------------------------------13--13--13----
g>-15-----------13----------------------------13--13--14-------------
d>------15--13-----15--13-----13-------------------------------------
a>------------------------15----15--14--13--11-----------------------
e>-------------------------------------------------------------------


e>---------------13--13-----
b>-----------13--13--13-----
g>----13--14----------------(4x)
d>--------------------------
a>--------------------------
e>--------------------------


e>--------------16--15--13------------13------------------------------
b>-----------13--------------------13-----16--13----------------------
g>-13--13-14----------------15^15----------------15--13---------------
d>------------------------------------------------------15--13--------
a>-------------------------------------------------------------------
Comments