Nofx - Straight Edge Chords & Tabs

 

Straight Edge Chords & Tabs

Nofx Chords & Tabs

Version: 1 Type: Tab 1 rating
1 star 2 stars 3 stars 4 stars 5 stars
comments

Straight Edge Tab

STRAIGHT EDGE by NOFX. Album : White trash, two heebs and a bean (1992)
El Hefe has played in a jazz-band and you can see it.
:                       h=hammer-on   p=pull-off   X=left hand-muting
# intro # (distortion)  b=bend-up to next note k=keep on bending \=slide-down
E---------8--------------------------------------------------------------->
B---8b9-----8k8k8k\5--------------------------------------------6-5------->
G---8b9-----8k8k8k\5---5-6-X-X-X-X-7-5-6-X-X-X-X-7-------7--5-6-7-5-5h7p5->
D----------------------5-5-X-X-X-X-7-5-5-X-X-X-X-7h9p7---7--5-5-----5----->
A------------------------------------------------------------------------->
E------------------------------------------------------------------------->
>intro
>------------------|
>------------------|
>------------------|
>-5----5-3---3-----|
>-5h7--5-3h5-3-0---|
>------------------|
:
# verse # X4 !end with first note!
E---1-----1-1-----1-----------------6-----6-6-----6-6-----6-----------|
B---1-----1-1-----1-7-----7---------6-----6-6-----6-6-----6-----------|
G---2-------2-------7-----7-5-----5-7-------7-------7-------6-----6---|
D---3-------3-------7-------4-----4-8-------8-------8-------6-----6---|
A---3-------3-------5-------5-------8-------8-------8-------5---------|
E-----------------------------------6-------6-------6-----------------|
:
# solo #        b=bend-up to next note                            >
E--13-13-13----16-13-----------13--------------------------------->
B-----------13--------------13----16-13--------------------------->
G---------------------15b17-------------15-13----13----13-----13-->
D---------------------------------------------15----15----15------>
A----------------------------------------------------------------->
E----------------------------------------------------------------->
>solo                                                     >
>--------------13-11-------------------------------------->
>-----------13--------13--13-15-13----13----------13------>
>--13-13-14------------------------15----15-13-15--------->
>----------------------------------------------------15--->
>--------------------------------------------------------->
>-------------------------\-----play-extra-fast-------/--->
>solo                                                           >
>-------------------------------------------------------13-13--->
>-----13---------------------------------------------13-13-13--->
>--15----------13---------------------------13-13-14------------>
>--------15-13----15-13----13----------------------------------->
>-----------------------15----15-14-13-11----------------------->
>--------------------------------------------------------------->
>solo                                                          >
>--------------13-13---------------13-13---------------13-13--->
>-----------13-13-13------------13-13-13------------13-13-13--->
>--13-13-14------------13-13-14------------13-13-14------------>
>-------------------------------------------------------------->
>-------------------------------------------------------------->
>-------------------------------------------------------------->
>solo                                                                       >
>--------------13-13---------------16-15-13----------13--------------------->
>-----------13-13-13------------13----------------13----16-13--------------->
>--13-13-14------------13-13-14-------------15b17-------------15-13--------->
>-------------------------------------------------------------------15-13--->
>--------------------------------------------------------------------------->
>--------------------------------------------------------------------------->
>solo
>----------------------------------------------|
>--13------------------------------------------|  > Then play verse X3
>--13----------13------------------------------|    (end with first note).
>-----15-13-15----15-13------------------------|    Jazz rules!         
>-----------------------15-14-13-11-11-11-13---|    Tabbed by Jussi Heinonen
>----------------------------------------------|    21.05.1998.       

[ Tab from: http://www.guitartabs.cc/tabs/n/nofx/straight_edge_tab.html ]
Comments