Nofx - Straight Edge Chords & Tabs

 

Straight Edge Chords & Tabs

Nofx Chords & Tabs

Version: 1 Type: Bass Tab 0 ratings
1 star 2 stars 3 stars 4 stars 5 stars
comments

Straight Edge Bass Tab

Song: Straight Edge 
Band: NoFX,  Minor Threat (MT's version may be different, i've never heard it)
Album: White trash, 2 heebs and a been
Tabbed by: Wheelz (rbreck@foxnet.net)

[ Tab from: http://www.guitartabs.cc/tabs/n/nofx/straight_edge_btab.html ]
G|-------------------------------------------------------------------|
D|---3-------------------3---2---1---0-----------------------0---3---|
A|-------0---1---2---3-------------------------------0---3-----------|
E|---------------------------------------2---3---4-------------------|


G|--0-------3---2---0--------3---2---0---------------0------------0---|
D|------0----------------0---------------2---3---4--------2---3-------|
A|--------------------------------------------------------------------|
E|--------------------------------------------------------------------|


Just repeat this a bunch of times.




Comments