Nofx - Stickin In My Eye Chords & Tabs

 

Stickin In My Eye Chords & Tabs

Nofx Chords & Tabs

Version: 6 Type: Tab 0 ratings
1 star 2 stars 3 stars 4 stars 5 stars
comments

Stickin In My Eye Tab

   
----------------------------------------------------------------------------                
STICKIN IN MY EYE - NOFX (Rancid Cover)
----------------------------------------------------------------------------
This is the Rancid Cover of Stickin in my eye....i think it sounds better anyway.

Tabbed by: Mike
Email:ski_to_the_xtreme@hotmail.com

Tuning: standard

INTRO (repeat twice, then play intro solo, then intro once more)
e|-------------------------------------------------------------------------|
B|-------------------------------------------------------------------------|
G|-------------------------------------------------------------------------|
D|-5-5-55-44-4-xx-45-5-55-x2-2-1-------------------------------------------|
A|-7-7-77-55-5-xx-53-3-33-x3-3-2-------------------------------------------|
E|-------------------------------------------------------------------------|

INTRO SOLO (1 2 1 2....no 12's)
e|-------------------------------------------------------------------------|
B|-------------------------------------------------------------------------|
G|-------------------------------------------------------------------------|
D|---5-----7--------5-3-0-2-12121------------------------------------------|
A|-7---765---55-4-3--------------2-----------------------------------------|
E|-------------------------------------------------------------------------|
[ Tab from: http://www.guitartabs.cc/tabs/n/nofx/stickin_in_my_eye_tab_ver_6.html ]
Pre Verse/Verse Guitar 1
e|-------------------------------------------------------------------------|
B|-------------------------------------------------------------------------|
G|-9---7---5---4-----------------------------------------------------------|
D|-9---7---5---4-----------------------------------------------------------|
A|-7---5---3---2-----------------------------------------------------------|
E|-------------------------------------------------------------------------|

Guitar 2
e|-------------------------------------------------------------------------|
B|-------------------------------------------------------------------------|
G|-------------------------------------------------------------------------|
D|-2-4-542-2-4-542-2-4-542-1--2-4------------------------------------------|
A|-------------------------------------------------------------------------|
E|-------------------------------------------------------------------------|

Chorus
e|-------------------------------------------------------------------------|
B|-------------------------------------------------------------------------|
G|-------------4-----------------------------------------------------------|
D|-2---5---7---4-----------------------------------------------------------|
A|-2---5---7---2-----------------------------------------------------------|
E|-0---3---5---------------------------------------------------------------|


| /  slide up
| \  slide down
| h  hammer-on
| p  pull-off
| ~  vibrato
| +  harmonic
| x  Mute note
============================================================================
Comments