Nofx - Stickin In My Eye Chords & Tabs

 

Stickin In My Eye Chords & Tabs

Nofx Chords & Tabs

Version: 5 Type: Tab 0 ratings
1 star 2 stars 3 stars 4 stars 5 stars
comments

Stickin In My Eye Tab

-------------------------------------------------------------------------------
			     Stickin' In My Eye - NOFX
-------------------------------------------------------------------------------
Tabbed by: Andrew Cannell
Email: deathless_one@hotmail.com

Tuning: Standard Tuning

After bass intro - There are some distorted effects or something but you figure that out.

Intro

Guitar 1
x2
|------------|  |----|
|------------|  |----|
|9--11-12-11-|  |7-9-|
|x---x-xx--x-|x3|x-x-|
|7---9-10--9-|  |5-7-|
|------------|  |----|

Guitar 2
|-----------|
|-----------|
|---7--5--4-|
|2--7--5--4-|x2
|2--5--3--2-|
|0----------|

Verse
Both Guitars
|-----------|
|-----------|
|9--7--5--4-|
|9--7--5--4-|x4
|7--5--3--2-|
|-----------|
[ Tab from: http://www.guitartabs.cc/tabs/n/nofx/stickin_in_my_eye_tab_ver_5.html ]
Guitar 1(Play after 2 times of verse)
|---------------|
|---------------|
|9---7--9-7-5-4-|
|x---x--x-x-x-x-|
|7---5--7-5-3-2-|
|---------------|

Chorus
Both Guitars
|-----------|
|-----------|
|-----------|
|2--5--7--9-|
|2--5--7--9-|
|0--3--5--7-|

Interlude
Both Guitars
|-------------------|  |------------------------|
|-------------------|  |------------------------|
|9--12--14b-(5)-(7)-|  |------------12h14-------|
|9--12--14b-(5)-(7)-|x4|------12h14-------12h14-|
|7--10--12b-(3)-(5)-|  |12h14-------------------|
|-------------------|  |------------------------|
( ) Play every time but last.

|------|
|------|
|9-----|
|9-----|
|7-----|
|------|

Repeat Verse

Repeat Chorus(Repeat Last Chord)

Repeat Intro(Ring out last chord)

Repeat Interlude(Only Guitar 2 Plays First Time Through, then everyone else comes in to finish it off)

Pretty sure this is 100% any questions, e-mail me.
Comments