Nofx - Stickin In My Eye Chords & Tabs

 

Stickin In My Eye Chords & Tabs

Nofx Chords & Tabs

Version: 4 Type: Tab 0 ratings
1 star 2 stars 3 stars 4 stars 5 stars
comments

Stickin In My Eye Tab

----------------------------------------------------------------------------
			     Stickin' In My Eye - Nofx
----------------------------------------------------------------------------
Tabbed by: Conner
Email: v_guitar_god@hotmail.com

Tuning: Standard (EADGBe)

x  - finger mute
X  - scratch
() - harmonic
h  - hit
*  - Palm Mute

I'll try my best to tab out the rhythem of how he strums the chords

Intro: (Acoustic w/ Chorus)
e|----------------------------------
B|----------------------------------
G|----------------------------------
D|--5-5-5555-44-4-5-5-555-2-22-2p1--
A|--7-7-7777-55-5-3-3-333-2-22-2-2--
E|-*0------------------------------- X6
   *Add in after second time thru
                                                             end on
e|--------------------------------------------------------    -----
B|--------------------------------------------------------    -----
G|--9-11--12-1111--9-11--12-1111--9-11--12-1111--8--9-11--    --9--
D|--x--x--xx--x-x--x--x--xx--x-x--x--x--xx--x-x--x--x--x--    --x--
A|--7--9--10--9-9--7--9--10--9-9--7--9--10--9-9--6--7--9--    --7--
E|-------------------------------------------------------- X2 -----

Verse: (start playing on: "I hear the voices...")
  Strum these pretty fast
e|-------------------------------------------------------
B|-------------------------------------------------------
G|--12---------------------14-11------12---11----9----8--
D|--xx---------------------xx--x------xx----x----x----x--
A|--10---------------------12--9------10----9----7----6--
E|-------------------------------------------------------

Chorus:
e|-----------------------
B|-----------------------
G|-----------------------
D|--2-----5-----7-----9--
A|--2-----5-----7-----9--
E|--0-----3-----5-----7-- X2
[ Tab from: http://www.guitartabs.cc/tabs/n/nofx/stickin_in_my_eye_tab_ver_4.html ]
Chorus Outro:
e|----------------------------------
B|----------------------------------
G|--9--X-X--12-12--X-X--------5--7--
D|--9--X-X--12-12--X-X--------5--7--
A|--7--X-X--10-10--X-X-(12)---3--5--
E|---------------------------------- X3
                                                       |----X8----|
e|-----------------------------------------------------|-----------
B|-----------------------------------------------------|-----------
G|--9--X-X--12-12--X-X--------------------12-----------|--99999-9--
D|--9--X-X--12-12--X-X--------------12h14---h14-12h14--|--99999-9--
A|--7--X-X--10-10--X-X-(12)---12h14--------------------|--77777-7--
E|-----------------------------------------------------|-----------
                                                          *****

Verse: (start playing on: "Kill beneath the camera...")
  Strum these pretty fast
e|-------------------------------------------------------
B|-------------------------------------------------------
G|--12---------------------14-11------12---11----9----8--
D|--xx---------------------xx--x------xx----x----x----x--
A|--10---------------------12--9------10----9----7----6--
E|-------------------------------------------------------

Chorus:
e|-----------------------------------------------------------
B|-----------------------------------------------------------
G|-----------------------------------------------------------
D|--2-----5-----7-----9-----2-----5-----7-----9-----9-----9--
A|--2-----5-----7-----9-----2-----5-----7-----9-----9-----9--
E|--0-----3-----5-----7-----0-----3-----5-----7-----7-----7--

                                                              end on
e|--------------------------------------------------------    -----
B|--------------------------------------------------------    -----
G|--9-11--12-1111--9-11--12-1111--9-11--12-1111--8--9-11--    --9--
D|--x--x--xx--x-x--x--x--xx--x-x--x--x--xx--x-x--x--x--x--    --9--
A|--7--9--10--9-9--7--9--10--9-9--7--9--10--9-9--6--7--9--    --7--
E|-------------------------------------------------------- X2 -----

Outro:
e|----------------------------------
B|----------------------------------
G|--9--X-X--12-12--X-X--------5--7--
D|--9--X-X--12-12--X-X--------5--7--
A|--7--X-X--10-10--X-X-(12)---3--5--
E|---------------------------------- X3

e|-----------------------------------------------------
B|-----------------------------------------------------
G|--9--X-X--12-12--X-X--------------------12-----------
D|--9--X-X--12-12--X-X--------------12h14---h14-12h14--
A|--7--X-X--10-10--X-X-(12)---12h14--------------------
E|-----------------------------------------------------

I tried to make it as easy to read as possible, if you have any questions,
email me and I'll email you back with some answers.
Comments