Nofx - Stickin In My Eye Chords & Tabs

 

Stickin In My Eye Chords & Tabs

Nofx Chords & Tabs

Version: 4 Type: Bass Tab 0 ratings
1 star 2 stars 3 stars 4 stars 5 stars
comments

Stickin In My Eye Bass Tab

X-SCRATCH
H-HAMMER

THIS SOUNDS 100% RIGHT,IF YOU DO IT RIGHT.
        
G:12-12-12-12-12-12-12-11-12-12-9-9-9-8----
D:-----------------------------------------
A:-----------------------------------------   X6
E:12-12-12-12-12-12-10-10-8--8--7-7-7-7----

G:-----------------------------------------
D:22222222-00000000------------------------
A:-----------------33333333-22222222-------   X2
E:-----------------------------------------

  (WHEN I LOOK AROUND........)
G:------------------------------------------
D:2222-0000---------------------------------
A:---------3333-2222------------------------  X4
E:------------------------------------------
[ Tab from: http://www.guitartabs.cc/tabs/n/nofx/stickin_in_my_eye_btab_ver_4.html ]
 (AND I GOT SOMTHING STICKIN IN MY EYE..)
G:------------------------------------------
D:------------------------------------------
A:-----------------0000000-22222222---------  X2
E:00000000-33333333-------------------------

G:----------------------------------12-9-7H9
D:-555-7-------555-7-------------7H9--------
A:7-----3-5---7-----3-5--7-555-3------------
E:------------------------------------------

G:------------------------------------------
D:------------------------------------------
A:7-XX-7-XX-7-XX-7--------------------------
E:------------------------------------------

  WELL YOU KNOW THE REST GOOD LUCK,AND STAY AWAY FROM 
  THE LIGHT!
Comments