Nofx - Soul Doubt Chords & Tabs

 

Soul Doubt Chords & Tabs

Nofx Chords & Tabs

Version: 2 Type: Tab 0 ratings
1 star 2 stars 3 stars 4 stars 5 stars
comments

Soul Doubt Tab

   
Soul Doubt - NOFX Album: White Trash, Two Heebs And A Bean (1992)  
-Guitar tab
Great Song!    
A=Melvin   B=El Hefe   A&B=both

Intro #A   %=pause   
E---------------------------------------------------------------------------|
B---------------------------------------------------------------------------|
G---9-9-9-------------9-9----------------9---9-------------9-9--------------|
D---9-9-9-------------9-9----------------9---9-------------9-9--------------|
A---7-7-7-%%%%%%%%%%%-7-7----------------7---7-%%%%%%%%%%%-7-7--------------|
E---------------------------------------------------------------------------|
Intro #B
E---------------------------------------------------------------------------|
B---------------------------------------------------------------------------|
G---------------------------------------------------------------------------|
D------------------------------5----------------------------5---------------|
A---7-7-7-5-5-5-5-5----------4-5-4------7-7-7-5-5-5-5-5-----5-4-2-----------|
E--------------------7---7-7---3-5-----------------------7--3-5-3-----------|

Intro #A&B *=play 8 times palm-muted
E---------------------------------------------------------------------------|
B---------------------------------------------------------------------------|
G------------------------------------------------------------*--*-----------|
D------------------------------5----------------------------7--9------------|
A---7-7-7-5-5-5-5-5----------4-5-4------7-7-7-5-5-5-5-5-----7--9------------|
E--------------------7---7-7---3-5-----------------------7--5--7------------|

Verse #A&B X2   !second time without last note!  m=palm-mute
E----------------------------------------------------------------|
B----------------------------------------------------------------|
G---9-9-9-9--9--9-9-9-9-9-9--9--9-9-9-9-9-9--9--9-9-7-----7------|
D---9-9-9-9--9--9-9-9-9-9-9--9--9-9-9-9-9-9--9--9-9-7--7--7--7---|
A---7-7-7-7--7--7-7-7-7-7-7--7--7-7-7-7-7-7--7--7-7-5--4--5--4---|
E-----m-m-------m-m---m-m-------m-m---m-m-------m-m--------------|

Bridge and Verse #A&B     "I Stick My Head..."
E----------------------------------------------------------------------|
B---9---------------7---------------7---------------9------------------|
G---9---------------7---------------7---------------9------------------|
D---9---------------7---------------7-------7-------9------------------|
A---7---------------5---------------5-------7-------7------------------|
E-------------------------------------------5--------------------------|
[ Tab from: http://www.guitartabs.cc/tabs/n/nofx/soul_doubt_tab_ver_2.html ]
Verse3 #A&B   m=palm-mute      *=play 6X                    
E---------------------------------------------------------------------------->
B---------------------------------------------------------------------------->
G---------------9-9-9-9--9--9-9-------------------------9-9------------------>
D---5-5-5-------9-9-9-9--9--9-9-5-5-5-------9-9-9---5---9-9-------------7-7-->
A---5-5-5-4-4-4-7-7-7-7--7--7-7-5-5-5-4-4-4-9-9-9---5---7-7---------7---7-7-->
E---3-3-3-5-5-5---m-m-------m-m-3-3-3-5-5-5-7-7-7---3----------5-5-7--3-5-5->
                                                               
>--------------------------------------------------------------------------->
>--------------------------------------------------------------------------->
>---------------------------------------------9--------------------------*-->
>----------10-10--------------2-2-------------9-------------7----------10--->
>-------7--10-10---7-7-5------2-2---------7---7---------7---7-------7--10--->
>-5-5-7---5-8--8---------7-3--0-0---5-5-7---3-----5-5-7---3-5---5-5---5-8--->

>----------------------------------------------------------------------------|
>----------------------------------------------------------------*-----------|
>-------------------------------------------------*----*--------9-----*----*-|
>---2--------------2-2-------------7------------10----5-----*---9---10----5--|
>---2---7-7-5------2-2---------7---7---------7--10----5----5----7---10----5--|
>---0---------7-3--0-0---5-5-7---3-5---5-5-7---5-8----3----2---------8----3--|

E-----------------------------------------|
B-----------------------------------------|
G-----------------------------------------|
D-----------------------------8-5-5-7-8---|
A---2-2-2-2-2-2-2-2-2-2-2-2-2-8-5-5-7-8---|
E---0-0-0-0-3-0-0-3-0-0-0-0-0-6-3-3-5-6---|

Verse4 #A&B     (She doesn't fit into the slipper...)  *=play 6X
E---------------------------------------------------------------|
B----*-----------------------*-------*-----------------------*--|
G---9--------*-------*------7-------9--------*-------*------7---|
D---9------10-------5-------7-------9------10-------5-------7---|
A---7------10-------5-------5-------7------10-------5-------5---|
E-----------8-------3-----------------------8-------3-----------|

Then play slighty different first verse...    

Solo #B   GuitarA plays verseA&B   b=bend 
E-------------------------------------------------12-------12---------------->
B---15b17---15b17---15-15-15-15-15-15----12----12----15-12----15-12---------->
G-------------------------------------------14----------------------15-14-12->
D---------------------------------------------------------------------------->
A-------------------------------------------------play-extra-fast!----------->
E---------------------------------------------------------------------------->

           \=slide down   h=hammer-on   p=pull-off               
>-------------------------------------------------------------->
>-----------------------------------------8-8---10-8-8----8-10->
>----12----12-------------------------7-9-----9--------9------->
>-14----14----14-12-14\-----------7-9-------------------------->
>----------------------------7-10------------------------------>
>-------------------------------------------------------------->

E--9b10--9k--9k--9k-----------------------------|
B-10b11-10k-10k-10k-15h17p15-17b19---17-15-17---|
G-----------------------------------------------|
D-----------------------------------------------|
A-----------------------------------------------|
E-----------------------------------------------|

Then play A&Bverse2A&BX2. 

General tabbed by Jussi Heinonen.
I've only change some parts, I think it sounds better.
Marko (milan.stimac@vz.hinet.hr)  http://free-vz.hinet.hr/nofx

Comments