Nofx - Soul Doubt Chords & Tabs

 

Soul Doubt Chords & Tabs

Nofx Chords & Tabs

Version: 1 Type: Tab 0 ratings
1 star 2 stars 3 stars 4 stars 5 stars
comments

Soul Doubt Tab

   
SOUL DOUBT by NOFX. Album : White trash, two heebs and a bean (1992)      1/3
Cool!!
A=Melvin   B=El Hefe   A&B=both
:
# intro #A   %=pause   ------------------------------------------------------------------------|
>------------------------------------------------------------------------|
>---------------------------------------------------------------*--------|
>-----------------------------2-5------------------------------5------*--|
>-----7-7-7-5-5-5-5-5-----7---4-5--4-------7-7-7-5-5-5-5-5-----5-----4---|
>---0-----------------7-----0---3--5-----0-----------------7---3-----5---|
:
# verse #A&B X2   !second time without last note!  m=palm-mute note above
E----------------------------------------------------------------|
B----------------------------------------------------------------|
G---9-9-9-9--9--9-9-9-9-9-9--9--9-9-9-9-9-9--9--9-9-7-----7------|
D---9-9-9-9--9--9-9-9-9-9-9--9--9-9-9-9-9-9--9--9-9-7-----7------|
A---7-7-7-7--7--7-7-7-7-7-7--7--7-7-7-7-7-7--7--7-7-5--7--5--7---|
E-----m-m-------m-m---m-m-------m-m---m-m-------m-m----9-----9---|
:
# bridge #A
E----------------------------------------------------------------------|
B---9---------------7---------------7---------------9------------------|
G---9---------------7---------------7---------------9------------------|
D---9---------------7---------------7-------7-------9------------------|
A---7---------------5---------------5-------7-------7------------------|
E-------------------------------------------5--------------------------|
# bridge #B
E----------------------------------------------------------------------|
B----------------------------------------------------------------------|
G---------------------------------------------------9------------------|
D---9---------------4---------------4-------7-------9------------------|
A---7-----------------------------------------------7------------------|
E----------------------------------------------------------------------|
:
>>>>>>>to next page...
:
:
:
:
:
:
:
:
:
:
SOUL DOUBT                                                                2/3
:
# verse2 #A X2      (I stick my head out of the window...)
E----------------------------------------------------------------------|
B---9---------------7---------------7---------------9------------------|
G---9---------------7---------------7---------------9------------------|
D---9---------------7---------------7-------7-------9------------------|
A---7---------------5---------------5-------7-------7------------------|
E-------------------------------------------5--------------------------|
# verse2 #B X2
E----------------------------------------------------------------------|
B----------------------------------------------------------------------|
G----------------------------------------------------------------------|
D----------------------------------------------------------------------|
A---7755775555445544554455445544554455445544554455447755775555445544---|
E----------------------------------------------------------------------|
:
# verse3 #A&B   m=palm-mute note above  %=pause     *=play 6X                    >
E---------------------------------------------------------------------------->
B---------------------------------------------------------------------------->
G---------------9-9-9-9--9--9-9-------------------------9-9------------------>
D---5-5-5-------9-9-9-9--9--9-9-5-5-5-------9-9-9---5---9-9-------------7-7-->
A---5-5-5-4-4-4-7-7-7-7--7--7-7-5-5-5-4-4-4-9-9-9---5---7-7---------7---7-7-->
E---3-3-3-5-5-5---m-m-------m-m-3-3-3-5-5-5-7-7-7---3-------%-5-5-7---3-5-5-%>
>verse3A&B                                                                  >
>--------------------------------------------------------------------------->
>--------------------------------------------------------------------------->
>---------------------------------------------9--------------------------*-->
>----------10-10--------------2-2-------------9-------------7----------10--->
>-------7--10-10-%-7-7-5------2-2---------7---7---------7---7-------7--10--->
>-5-5-7---5-8--8---------7-3--0-0-%-5-5-7---3---%-5-5-7---3-5-%-5-5---5-8--->
>verse3A&B
E----------------------------------------------------------------------------|
B----------------------------------------------------------------*-----------|
G-------------------------------------------------*----*--------9-----*----*-|
D---2--------------2-2-------------7------------10----5-----*---9---10----5--|
A---2-%-7-7-5------2-2---------7---7---------7--10----5----0----7---10----5--|
E---0---------7-3--0-0-%-5-5-7---3-5-%-5-5-7---5-8----3----2---------8----3--|
:
# heavy-riff #A&B X4
E-----------------------------------------|
B-----------------------------------------|
G-----------------------------------------|
D-----------------------------8-5-5-5-7---|
A---2-2-2-2-2-2-2-2-2-2-2-2-2-8-5-5-5-7---|
E---0-0-0-0-3-0-0-3-0-0-0-0-0-6-3-3-3-5---|
:
# verse4 #A&B     (She doesn't fit into the slipper...)  *=play 6X
E---------------------------------------------------------------|
B----*-----------------------*-------*-----------------------*--|
G---9--------*-------*------7-------9--------*-------*------7---|
D---9------10-------5-------7-------9------10-------5-------7---|
A---7------10-------5-------5-------7------10-------5-------5---|
E-----------8-------3-----------------------8-------3-----------|
:
# verse5 #A&B     (Her eyes meet mine...)
E------------------------------------------------------------------------>
B------------------------------------------------------------------------>
G------------------------------------------------------------------------>
D-----------------------------2-5------------------------------5-----9--->
A-----7-7-7-5-5-5-5-5-----7---4-5--4-------7-7-7-5-5-5-5-5-----5--4--9--->
E---0-----------------7-----0---3--5-----0-----------------7---3--5--7--->
:
>>>>>>>>>to next page...
:
:
:
:
SOUL DOUBT                                                                3/3
:
>verse5
>------------------------------------------------------------------------>
>------------------------------------------------------------------------>
>------------------------------------------------------------------------>
>-----------------------------2-5------------------------------5-----9--->
>-----7-7-7-5-5-5-5-5-----7---4-5--4-------7-7-7-5-5-5-5-5-----5--4--9--->
>---0-----------------7-----0---3--5-----0-----------------7---3--5--7--->
>verse5
>-----------------|
>-----------------|
>-------------7---|
>---5-----9---7---|
>---5--4--9---5---|
>---3--5--7-------|
:                                    k=keep on bending 
# solo #B   GuitarA plays verseA&B   b=bend-up to next note   r=release-bend >
E-------------------------------------------------12-------12---------------->
B---15b17---15b17---15k15k15k15k15r15----12----12----15-12----15-12---------->
G-------------------------------------------14----------------------15-14-12->
D---------------------------------------------------------------------------->
A-------------------------------------------------play extra fast!----------->
E---------------------------------------------------------------------------->
>soloB   \=slide down   h=hammer-on   p=pull-off               >
>-------------------------------------------------------------->
>-----------------------------------------8-8---10-8-8----8-10->
>----12----12-------------------------7-9-----9--------9------->
>-14----14----14-12-14\-----------7-9-------------------------->
>----------------------------7-10------------------------------>
>-------------------------------------------------------------->
>soloB
E-10b11-10k-10k-10k-----------------------------|
B-11b12-11k-11k-11k-15h17p15-17b19---17-15-17---|
G-----------------------------------------------|
D-----------------------------------------------|
A-----------------------------------------------|
E-----------------------------------------------|
:
Then play verse2A&B.
:
# outro #A&B
E---------------------------------------------------------------------------->
B---------------------------------------------------------------------------->
G---------------9-9-9-9--9--9-9-------------------------9-9------------------>
D---5-5-5-------9-9-9-9--9--9-9-5-5-5-------9-9-9---5---9-9-------------7-7-->
A---5-5-5-4-4-4-7-7-7-7--7--7-7-5-5-5-4-4-4-9-9-9---5---7-7---------7---7-7-->
E---3-3-3-5-5-5---m-m-------m-m-3-3-3-5-5-5-7-7-7---3-------%-5-5-7---3-5-5-%>
>outroA&B                                                                    
>---------------------------------------------|
>---------------------------------------------|
>-------------------------------------7-8-9---|
>----------10-10--------------2-------7-8-9---|
>-------7--10-10-%-7-7-5------2-------5-6-7---|
>-5-5-7---5-8--8---------7-3--0---------------|
:
There's quite a list again! Keep the rhythm right.
Tabbed by Jussi Heinonen 20.05.1998.                Thanks to Juha Kellokoski 

[ Tab from: http://www.guitartabs.cc/tabs/n/nofx/soul_doubt_tab.html ]
Comments