Nofx - Sloppy English Chords & Tabs

 

Sloppy English Chords & Tabs

Nofx Chords & Tabs

Version: 2 Type: Tab 0 ratings
1 star 2 stars 3 stars 4 stars 5 stars
comments

Sloppy English Tab

   
SLOPPY ENGLISH by NOFX. Album : Liberal animation (1988)
Not really hard one. I left those verse solos, because they are quiet and they
suck in the song!
A=Dave   B=Melvin   A&B=both
:
# intro #A
E--------------------------------------------------|
B--------------------------------------------------|
G---------------------------pool---9-9-9---9-9-9---|
D---------------------------strike-9-9-9---9-9-9---|
A----------------------------------7-7-7---7-7-7---|
E--------------------------------------------------|
# intro #B
E--------------------------------------------------|
B--------------------------------------------------|
G--141414131313111111131313-pool---9-9-9---9-9-9---|
D--141414131313111111131313-strike-9-9-9---9-9-9---|
A--121212111111-9-9-9111111--------7-7-7---7-7-7---|
E--------------------------------------------------|
:
# verse #A&BX3   !=third time guitar A takes pause
E-------------------------------------------|
B-----------------------------------!-------|
G--141414131313111111131313-9-9-9---9-9-9---|
D--141414131313111111131313-9-9-9---9-9-9---|
A--121212111111-9-9-9111111-7-7-7---7-7-7---|
E-------------------------------------------|
:
# chorus #A
E---------------------------/-palm-muted---\---|
B----------------------------------------------|
G-----------5----------------------------------|
D-----------5-------5---7---2222222222222222---|
A-----------3-------5---7---2222222222222222---|
E-------------------3---5---0000000000000000---|
# chorus #B
E---------------------------/-palm-muted---\---|
B----------------------------------------------|
G---7-------5----------------------------------|
D---7-------5-------5---7---2222222222222222---|
A---5-------3-------5---7---2222222222222222---|
E-------------------3---5---0000000000000000---|
:
Then play A&BverseA&BX4, A&BchorusB, A&BverseA&BX4 (first two times with big
pauses), A&BchorusB and A&BverseA&B.
And that's it!
Tabbed by Jussi Heinonen 17.10.1998.
[ Tab from: http://www.guitartabs.cc/tabs/n/nofx/sloppy_english_tab_ver_2.html ]
Comments