Nofx - Six Pack Girls Chords & Tabs

 

Six Pack Girls Chords & Tabs

Nofx Chords & Tabs

Version: 1 Type: Chords 0 ratings
1 star 2 stars 3 stars 4 stars 5 stars
comments

Six Pack Girls Chords

#----------------------------------PLEASE NOTE--------------------------------#
#This file is the author's own work and represents their interpretation of the#
#song. You may only use this file for private study, scholarship, or research.#
#-----------------------------------------------------------------------------#


Date: Fri, 30 Jan 1998 11:17:55 -0500
From: Stash Fortier 
Subject: TAB: six pack girls by NOFX

-----------------------------------------------------------------------
                        SIX PACK GIRLS BY NOFX
ALBUM: MAXIMUM ROCK & ROLL
-----------------------------------------------------------------------

By:Stash Fortier(stash@nt.net)

PART 1
e|--------------------------------------------------------------------|
B|--------------------------------------------------------------------|
G|-9---9-9---9---9-9-9-9----------------------------------------------|
D|-9---9-9---9---9-9-9-9----------------------------------------------|
A|-7---7-7---7---7-7-7-7----------------------------------------------|
E|--------------------------------------------------------------------|
[ Tab from: http://www.guitartabs.cc/tabs/n/nofx/six_pack_girls_crd.html ]
PART 2
e|--------------------------------------------------------------------|
B|--------------------------------------------------------------------|
G|-9-9--12-12--7-7--11-11---X6----------------------------------------|
D|-9-9--12-12--7-7--11-11---------------------------------------------|
A|-7-7--10-10--5-5--9--9----------------------------------------------|
E|--------------------------------------------------------------------|

PART 3
e|--------------------------------------------------------------------|
B|--------------------------------------------------------------------|
G|-9-9--12-12--7-7-7-7------9-9---12-12-12-12-------------------------|
D|-9-9--12-12--7-7-7-7--X3--9-9---12-12-12-12-------------------------|
A|-7-7--10-10--5-5-5-5------7-7---10-10-10-10-------------------------|
E|--------------------------------------------------------------------|

REPEAT PART 2, PART 3

PART 4
e|--------------------------------------------------------------------|
B|--------------------------------------------------------------------|
G|-9--12--9-9-9-------------------------------------------------------|
D|-9--12--9-9-9-------------------------------------------------------|
A|-7--10--7-7-7-------------------------------------------------------|
E|--------------------------------------------------------------------|

NO LYICS AVAILABLE DUE TO INCOMPREHENSION

stash@nt.net for comments/questions
=======================================================================



Comments