Nofx - Seperation Of Church And Skate Chords & Tabs

 

Seperation Of Church And Skate Chords & Tabs

Nofx Chords & Tabs

Version: 3 Type: Tab 0 ratings
1 star 2 stars 3 stars 4 stars 5 stars
comments

Seperation Of Church And Skate Tab

   
I am tabbing this solo because first off, there are plenty of tabs of the
whole song that are good enough to use. Secondly, no one can seem to grab
a hold of the solo, which to me is amazing since its not that hard to play
or tab. I am 95% sure on this.


again corrections go to: mullenman223@yahoo.com

Tuning: Standard

There is some sort of feedback on the guitar.


~ = wide vibrato
b = bend
p = pull-off
h = hammer-on
/ = slide up
[ Tab from: http://www.guitartabs.cc/tabs/n/nofx/seperation_of_church_and_skate_tab_ver_3.html ]
e--12b14--12b14--10b12~~~~~~-----------------------------10h12-------10h12~-|
b-----------------------------12p10-10h12~~~~--12p10----------12p10---------|
g---------------------------------------------------------------------------|
d---------------------------------------------------------------------------|
a---------------------------------------------------------------------------|
E---------------------------------------------------------------------------|

e--------------------------------------10h12--------------------------------|
b-------------5h8---12p10--12p10-12p10-------12p10--12p10--12-/-15~~--------|
g--8p5h8~-8p5---------------------------------------------------------------|
d---------------------------------------------------------------------------|
a---------------------------------------------------------------------------|
E---------------------------------------------------------------------------|
Comments