Nofx - Seperation Of Church And Skate Chords & Tabs

 

Seperation Of Church And Skate Chords & Tabs

Nofx Chords & Tabs

Version: 1 Type: Tab 0 ratings
1 star 2 stars 3 stars 4 stars 5 stars
comments

Seperation Of Church And Skate Tab

Seperation chiurch and skate
by NoFX
Album War on errorism
Standard Tuning EADGBe

Intro 1(played slow)

------------------------------------------------
------------------------------------------------
-----------------5----------------7------------
---------2-------5--------5------7------------
---------2-------3--------5------5------------
---------0----------------3--------------------

Intro 2(played FAST)(x2)

--------------------------------------------------
--------------------------------------------------
--------------------------------------------------
--------------------------------------------------
------>>>>007006005333007006005333---
--------------------------------------------------
>>>=(Pick slide)
[ Tab from: http://www.guitartabs.cc/tabs/n/nofx/seperation_of_church_and_skate_tab.html ]
Verse P.M.
(part1)
------------------------------------------------------
------------------------------------------------------
------------------------------------------------------
----------------------5-----------7------------------
---------7#---2-----3-----5-----5------------------
---------5-----0-----------3-------------------------

#(X8)- (rest are x2)

Verse OPEN
(part 2)
-----------------------------------------------------------
-----------------------------------------------------------
-----------------------------------------------------------
-------------------------5---------------------------------
---------7-------2------3-------5#-----------------------
---------5-------0--------------3-------------------------

(All are x4)#(x2)

Chorus
-------------------------------------------------------------------
-------------------------------------------------------------------
-------------------------------------------------------------------
-----------------------------5-------------------------------------
----------7--------2--------3--------5----------------------------
----------5--------0-----------------3----------------------------

(All are x8)

My first ever Tab! E-Mail corections to punkstilllives@hotmail.com
Comments