Nofx - Seperation Of Church And Skate Chords & Tabs

 

Seperation Of Church And Skate Chords & Tabs

Nofx Chords & Tabs

Version: 2 Type: Bass Tab

Seperation Of Church And Skate Bass Tab

Band: Nofx
Album: The War on Errorism
song: The Seperation of Church and Skate


Intro (0:37)
G|----------------------------------------------------------------------|
D|-----------------------0----------------------------------------------|
A|--0-----3-------------------------------------------------------------|
E|---------------3------------------------------------------------------|
(Let all those notes ring for about 2 seconds)

Intro Continued (0:43)
G|----------------------------------------------------------------------|
D|----------------------------------------------------------------------|
A|--0706-00-5353-0706-00-5353-0706-00-5353-0706-00-00-------------------|
E|----------------------------------------------------------------------|

Not 100% certain if correct, becuz of the guitar over
top

Verse 1(0:51)
G|----------------------------------------------------------------------|
D|----------------------------------------------------------------------|
A|--0000---33-------0706------0000---33---------00----------------------|
E|-------11---3333-----------------11--3333-----------------------------|
Palm Muted……….....            P.M………………....

Chorus (0:57)
G|----------------------------------------------------------------------|
D|----------------------------------------------------------------------|
A|--00000000-------------33333333---------------------------------------|
E|-------------11111111-------------33334444----------------------------|

G|----------------------------------------------------------------------|
D|----------------------------------------------------------------------|
A|--00000000-----------33333333-000000788888888888888888----------------|
E|------------11111111--------------------------------------------------|

After chorus (1:15)

G|-----------------------------------------------------------------------|
D|-----------------------------------------------------------------------|
A|--0------------------0--0706-------------------------------------------|
E|-----------------------------------------------------------------------|

Let the first A ring then play a second time afterwards

Verse 2 (1:21)
G|-----------------------------------------------------------------------|
D|-----------------------------------------------------------------------|
A|---0000----33---------0706------0000----33---------00------------------|
E|--------11---3333---------------------11-----3333----------------------|
     Palm Muted………                P.M………………….......

Chorus (1:28)
G|-----------------------------------------------------------------------|
D|-----------------------------------------------------------------------|
A|--00000000-------------33333333----------------------------------------|
E|-------------11111111-------------33334444-----------------------------|
[ Tab from: http://www.guitartabs.cc/tabs/n/nofx/seperation_of_church_and_skate_btab_ver_2.html ]
G|-----------------------------------------------------------------------|
D|-----------------------------------------------------------------------|
A|--00000000-----------33333333--000000788888888888888888----------------|
E|------------11111111---------------------------------------------------|

Acoustic interlude (1:46) [Rest]

Guitar solo (1:57)
G|-----------------------------------------------------------------------|
D|------------333333-----------------------------------------------------|
A|-00000000------------000000xx333333---000000---------------------------|
E|------------------xx----------------xx---------------------------------|

G|-----------------------------------------------------------------------|
D|--------------000000----22222222---------------------------------------|
A|--xx333333xx---------xx------------------------------------------------|
E|-----------------------------------------------------------------------|

Bridge (2:10)
G|-----------------------------------------------------------------------|
D|-----------------------------------------------------------------------|
A|--0------0------0---0706-0053------------------------------------------|
E|-----------------------------------------------------------------------|
Verse 3 (2:18)
G|-----------------------------------------------------------------------|
D|-----------------------------------------------------------------------|
A|-0000---33------0706-0000---33-----------------------------------------|
E|------11---3333-----------11---3234------------------------------------|
Palm Muted …….....     P.M…………..

Chorus (2:24)
G|-----------------------------------------------------------------------|
D|-----------------------------------------------------------------------|
A|-00000000-----------33333333-------------------------------------------|
E|-----------11111111-----------33334444---------------------------------|

G|-----------------------------------------------------------------------|
D|-----------------------------------------------------------------------|
A|-00000000-----------33333333-------------------------------------------|
E|-----------11111111-----------33334444---------------------------------|

G|-----------------------------------------------------------------------|
D|-----------------------------------------------------------------------|
A|-00000000-----------33333333-------------------------------------------|
E|-----------11111111-----------33334444---------------------------------|

G|-----------------------------------------------------------------------|
D|-----------------------------------------------------------------------|
A|-000000788888888888888888----------------------------------------------|
E|-----------------------------------------------------------------------|

Outro (2:56)

G|----------------------------------------------------------------------|
D|----------------------------------------------------------------------|
A|-00030---030---00030---030--00-00-------------------------------------|
E|-------32----3-------32----3------------------------------------------|

G|----------------------------------------------------------------------|
D|----------------------------------------------------------------------|
A|-00030--030--00030---030--00030--030--00------------------------------|
E|------32----3-----32----3------32----3--------------------------------|