Nofx - Separation Of Church And Skate Chords & Tabs

 

Separation Of Church And Skate Chords & Tabs

Nofx Chords & Tabs

Version: 4 Type: Tab 0 ratings
1 star 2 stars 3 stars 4 stars 5 stars
comments

Separation Of Church And Skate Tab

   
# intro #B X4.75 !fast!
E---------------------------|-------|      
B-----------------------------------|      
G-----------------------------------|      
D-----------------------------------|      
A---00533353005335530053355300770066|      
E-----------------------------------|      
:
# intro2 #A <<<=pick-slide
E-------------------|-----|3X|-----|------------|
B-------------------|--------------|------------|      
G---2---5-------7---|--------------|--------/---|      
D---2---5---5---7---|--------------|--------5777|      
A---0---3---5---5--<0077006600533533007700665777|      
E-----------3------<|--------------|--------3555|      
# intro2 #B
E--|-----|4X|------||-----|3X|-----|------------|      
B--|---------------||--------------|------------|      
G--|---------------||--------------|--------/---|      
D--|---------------||--------------|--------5777|      
A--|00770066005335530077006600533533007700665777|      
E--|---------------||--------------|--------3555|      
:
# verse #A&B *=play 8X #=play 4X %=pause
E---/----------------------!palm-muted!--------------------\-%%-%%|
B------------------------------------------------------------%%-%%|      
G----------------#-------------------------------#-----------%%-%%|      
D----*-------#--5----*---------------*-------#--5----*------7%%7%%|      
A---7-------3---3---5-------007700667-------3---3---5-------7%%7%%|      
E---5-------1-------3---------------5-------1-------3-------5%%5%%|      
:
# chorus #A&B !effect! *=play 7X #=play 4X                          >
E------------------------------------------------------------------->
B------------------------------------*-------*---------------------->      
G----*-------*-------*-------*------5-------5--------*-------*------>      
D---7-------7-------3-------3-------5-------5-------5-------6------->      
A---7-------7-------3-------3-------3-------3-------5-------6------->      
E---5-------5-------1-------1-----------------------3-------4------->
>chorusA&B
>----------------------------------------------------------->  /-> A
>------------------------------------*-------*--------------> /
>----*-------*-------*-------*------5-------5--------*------>/     
>---7-------7-------3-------3-------5-------5-------7------->\     
>---7-------7-------3-------3-------3-------3-------7-------> \    
>---5-------5-------1-------1-----------------------5------->  \-> B
>chorusA
>-------------------------------------------|
>------------*-------*-------*-------*------|
>----#---9-10------10------10------10-------|      
>---7----9-10------10------10------10-------|      
>---7----7--8-------8-------8-------8-------|      
>---5---------------------------------------|      
>chorusB
>-------------------------------------------|
>-------------------------------------------|
>----#-------*-------*-------*-------*------|      
>---7----2--3-------3-------3-------3-------|      
>---7----2--3-------3-------3-------3-------|      
>---5----0--1-------1-------1-------1-------|      
:
>>>>>>>>>to next page...
:
:
THE SEPARATION OF CHURCH AND SKATE                                        2/3 
:
# into-verse2 #A !B plays middle-part of intro2 X3.5!
E------------------>--------|
B------------------>--------| >Then play A&BverseA&B and AchorusA or BchorusB.
G------------------>--------|      
D---7-------------->--------|      
A---7-------------->00770066|      
E---5-------------->--------|      
:
# bridge #A??? (When did punkrock...)
E---0-------1-------3---1-------------------0-------|
B---1-------3-------0---0---1-------1-------1-------|
G---0-------2-------0---0---2-------2-------0-------|      
D---2-------0-------0---0---2-------3-------2-------|      
A---3-------0---------------0-------3-------3-------|      
E---3-----------------------------------------------|      
:   C       Dm      G   G7  Am      F       C        
# solo-bg #A *=play 8-11X #=play 3-4X
E---/------!palm-muted!-------\|------------|2X|---------------|------------
B------------------------------|-#---------------#-------------|----*-----*
G--------------------*-------#-|7---*----------10---*----------|-#-7----10---
D----*-------*-----10------10--|7--7-----------10-10-----------|7--7-----8--
A---7-------7-------8-------8--|5--7------------8-10-----------|7--5-----8---
E---5-------5------------------|---5---------------8-----------|5----------|      
# solo #B !wah-wah! *=play 8X p=pull-off h=hammer-on b=bend-up one step      >
E---/-----!palm-muted!----\----1210-------1210--1012---1210----------h--8----
B--------------------------------p-1310-----p-13--/-----p--1313-10--810--10--
G--------------------*-----/9------------------------------------------------
D----*-------*-----10--------------------------------------------------------
A---7-------7-------8--------------------------------------------------------
E---5-------5---------------------------------------------------------------->
>soloB r=release bend
>----------------------------------------------------------------------------
>------------8---------------------h-------------h---------------------------
>---9p7h9-7-----7-r-5-----/10-9p7-910p9-/10-9p7-910p9---7-r-5--------5-------
>---------b-----b-----7---------------------------------b-----7--5h7---7-----
>----------------------------------------------------------------------------
>----------------------------------------------------------------------------
:
# into-verse3 #A
E-------------------------------------------------------------------|
B-------------------------------------------------------------------|
G-------------------------------------------------------------------|      
D-------------------------------------------------------------------|      
A---0---------------0---------------0---------------0---------------|      
E-------------------------------------------------------------------|      
# into-verse3 #B
E-------------------------------------------------------------------|
B-------------------------------------------------------------------|
G-----------------------------------------------------99--88--75-555|      
D---------------------------------------------------77--77--77------|      
A---007700660053353300770066005335330077006600533533----------------|      
E-------------------------------------------------------------------|      
:
# verse3 #A&B *=play 8X #=play 4X 
E---/-----!palm-muted!-----\--------/-!palm-muted!-\-%%-%%-%%-%%|
B----------------------------------------------------%%-%%-%%-%%|      
G----------------#-------------------------------#---%%-%%-%%-%%|      
D----*-------#--5----*---------------*-------#--5----%%-%%-%%-%%|      
A---7-------3---3---5-------007700667-------3---3---5%%5%%5%%7%%|      
E---5-------1-------3---------------5-------1-------3%%2%%3%%4%%|      
:
Then play A&B1st row of chorusA&B X3.
>>>>>to next page...
: 
:
:
THE SEPARATION OF CHURCH AND SKATE                                        3/3
:
# end-chorus3 #A *=play 7X #=play 4X
E-------------------------------------------------------------------|
B------------------------------------*-------*-------*-------*------|
G----*-------*-------*-------#---9-10------10------10------10-------|      
D---7-------7-------7-------7----9-10------10------10------10-------|      
A---7-------7-------7-------7----7--8-------8-------8-------8-------|      
E---5-------5-------5-------5---------------------------------------|      
# end-chorus3 #B *=play 7X #=play 4X
E-------------------------------------------------------------------|
B-------------------------------------------------------------------|
G----*-------*-------*-------#-------*-------*-------*-------*------|      
D---7-------7-------7-------7----2--3-------3-------3-------3-------|      
A---7-------7-------7-------7----2--3-------3-------3-------3-------|      
E---5-------5-------5-------5----0--1-------1-------1-------1-------|      
:
# outro #A n=bend 1/4 step p=pull-off %=pause
E------------------------------------------------------------------->\
B-------------------------------------------------------------------> \
G------------------------------------------------------------------->  \   
D-------np-------p------np-------p--2-22np-------p--2-22np-------p-->   \  
A---0-0030-5-4-030n-0-0030-5-4-030n-0-0030-5-4-030n-0-0030-5-4-030n->    \ 
E----------3-2----3--------3-2----3--------3-2----3--------3-2----3->     \
# outro #B n=bend 1/4 step p=pull-off %=pause *=play 8X                    /
E---%%%%%%%%%%%%%%%%%%%%%%%%%%%%%%%--------------------------------->     /
B---%%%%%%%%%%%%%%%%%%%%%%%%%%%%%%%--*-------*---------------------->    /
G---%%%%%%%%%%%%%%%%%%%%%%%%%%%%%%%14------14------\---------------->   /  
D---%%%%%%%%%%%%%%%%%%%%%%%%%%%%%%%14------14------\2-22np-------p-->  /   
A---%%%%%%%%%%%%%%%%%%%%%%%%%%%%%%%12------12------\0-0030-5-4-030n-> /    
E---%%%%%%%%%%%%%%%%%%%%%%%%%%%%%%%------------------------3-2----3->/     
>outroA&B
>-----%%%%--%%%%%%%%--------------------------------------------------| 
>-----%%%%--%%%%%%%%--------------------------------------------------|  
>---22%%%%22%%%%%%%%------------------------------------------------22|      
>---22%%%%22%%%%%%%%2-22np-------p--2-22np-------p--2-22np-------p--22|      
>---00%%%%00%%%%%%%%0-0030-5-4-030n-0-0030-5-4-030n-0-0030-5-4-030n-00|      
>-----%%%%--%%%%%%%%-------3-2----3--------3-2----3--------3-2----3---|      
:
[ Tab from: http://www.guitartabs.cc/tabs/n/nofx/separation_of_church_and_skate_tab_ver_4.html ]
Comments