Nofx - Separation Of Church And Skate Chords & Tabs

 

Separation Of Church And Skate Chords & Tabs

Nofx Chords & Tabs

Version: 2 Type: Tab 0 ratings
1 star 2 stars 3 stars 4 stars 5 stars
comments

Separation Of Church And Skate Tab

  Intro
   1st part ( a few times )
E---------------------------------------------------------------|
B---------------------------------------------------------------|
G---------------------------------------------------------------|
D---------------------------------------------------------------|
A-005333530053335300533353007-006-------------------------------|
E---------------------------------------------------------------|
    2nd part ( a few times )          The last time
E----------------------------------|-----------------------------|
B----------------------------------|-----------------------------|
G----------------------------------|-----------------------------|
D----------------------------------|---------00------------------|
A-007-006-00533353007-006-00533353-|-007-006-00------------------|
E----------------------------------|-----------------------------|
   Verse (PM)                 after (not PM)
E---------------------------|------------------------------------|
B---------------------------|------------------------------------|
G--------------5555---------|------------------------------------|
D--777777773333555555555555-|--7--7--7---------------------------|
A--777777773333333355555555-|--7--7--7---------------------------|
E--555555551111----33333333-|--5--5--5---------------------------|
    Verse (not PM)
E---------------------------------------------------------------|
B---------------------------------------------------------------|
G------------------55555555-------------------------------------|
D--55555555333333335555555555555555-----------------------------|
A--77777777333333333333333355555555-----------------------------|
E--5555555511111111--------33333333-----------------------------|
    chorus 
E---------------------------------------------------------------|
B---------------------------------------------------------------|
G---------------------------------------------------------------|
D--2-3----------------------------------------------------------|
A--2-3----------------------------------------------------------|
E--0-1----------------------------------------------------------|
[ Tab from: http://www.guitartabs.cc/tabs/n/nofx/separation_of_church_and_skate_tab_ver_2.html ]
Comments