Nofx - Separation Of Church And Skate Chords & Tabs

 

Separation Of Church And Skate Chords & Tabs

Nofx Chords & Tabs

Version: 1 Type: Tab 0 ratings
1 star 2 stars 3 stars 4 stars 5 stars
comments

Separation Of Church And Skate Tab

------------------------------------------------------------------------------
                   Separation Of Church And Skate - NoFX
------------------------------------------------------------------------------

Tab by: Ryan McS.
Email: RPMSJ99@aol.com
Tuning: Standard

e|-----------------------------------|---------------------------------------|
B|-----------------------------------|---------------------------------------|
G|-----------------------------------|---------------------------------------|
D|-----------------------------------|----------------------------------x2---|
A|--00-5p3-33-5p0-00-5p3-33-5p0------|--00-5p3-33-5p0-00-77-00-66------------|
E|-----------------------------------|---------------------------------------|
[ Tab from: http://www.guitartabs.cc/tabs/n/nofx/separation_of_church_and_skate_tab.html ]
e|---------------------------------------|---------|
B|---------------------------------------|---------|
G|---------------------------------------|---------|
D|-----------------------------------x4--|---------|
A|--00--77--00--55--00--5-3-3-3-5-0------|---------|
E|---------------------------------------|-0-2-3-5-|
                                              
                                      Play This 2nd Time Through    
e|-----------------------------------------|------------|
B|-----------------------------------------|------------|
G|-----------------------------------------|------------|
D|-----------10101010----------------------|------------|
A|-77777777---8-8-8--8--10101010--55555555-|---77--66---|
E|-55555555--------------8-8-8-8--33333333-|-55--55-----|
p.m. all ->


e|---------------------------------------------------------------------------|
B|---------------------------------------------------------------------------|
G|-------------------1010101010101010----------------------------------------|
D|-7--7----77777777--1010101010101010--1010101010101010--5555-6666-7777------|
A|-7--7----77777777---8-8-8-8-8-8-8-8--1010101010101010--5555-6666-7777------|
E|-5--5----55555555---------------------8-8-8-8-8-8-8-8--3333-4444-5555------|
pm...  pm off...

continued…                                    
e|---------------------------------------------------------------------------|
B|---------------------------------------------------------------------------|
G|-1010101010101010------------------------------9-1010101010101010----------|
D|-1010101010101010--1010101010101010--77777777—-9-1010101010101010--7-------|
A|--8-8-8-8-8-8-8-8--1010101010101010--77777777—-7--8-8-8-8-8-8-8-8--7-------|
E|--------------------8-8-8-8-8-8-8-8--55555555----------------------5-------|


==============================================================================
Comments