Nofx - Seeing Double At The Triple Rock Chords & Tabs

 

Seeing Double At The Triple Rock Chords & Tabs

Nofx Chords & Tabs

Version: 2 Type: Tab 0 ratings
1 star 2 stars 3 stars 4 stars 5 stars
comments

Seeing Double At The Triple Rock Tab

h = hammer on
p = pull off
b = bend note
x = scratch
# = pm 4-8x
* = play about 6-8x
~ = let ring
[ Tab from: http://www.guitartabs.cc/tabs/n/nofx/seeing_double_at_the_triple_rock_tab_ver_2.html ]
intro (4x)                                  1st-3rd last time
e|-----------------------------------------|-------|---------|
B|-----------------------------------------|-------|---------|
G|-----------------------------------------|-------|---------|
D|----5-------5-----5---7p5------5-------5-|-77----|-777-----|
A|-77---7-5h7----77---7-------77---7-5h7---|-55-77-|-555-7-5-|
E|-----------------------------------------|----55-|-----5-3-|
riff (4x)                                   1st/3rd 2nd end last time
e|-----------------------------------------|-------|-------|---------|
B|-----------------------------------------|-------|-------|---------|
G|-----------------------------------------|-------|-------|---------|
D|----5-------5-----5---7p5------5-------5-|-77----|-77-88-|-777-----|
A|-77---7-5h7----66---7-------55---7-5h7---|-55-77-|-55-66-|-555-7-5-|
E|-----------------------------------------|----55-|-------|-----5-3-|

verse
e|-----------------------------------|
B|-----------------------------------|
G|-------7#--------------7#-9x9-999\-|
D|-2#-5#-7--7#-----2#-5#-7--9x9-999\-|
A|-2--5--5--7------2--5--5--7-7-777\-|
E|-0--3-----5--3b--0--3--------------|

e|-----------------------------|
B|-----------------------------|
G|-------7*--------------7*-9*-|
D|-2*-5*-7--7*-----2*-5*-7--9--|
A|-2--5--5--7------2--5--5--7--|
E|-0--3-----5--3b--0--3--------|

chorus
e|--------------0---------|
B|--------------1***------|
G|-5*-7*----9*--2---------|
D|-5--7--9*-9---2----fill-|
A|-3--5--6--7---0---------|
E|--------------------3b--|

rpt. riff 2x, verse, chorus

bridge
e|-------------|-0~-0~-3~-0~ 2x|-0--0-----|
B|-------------|-1--1--3--0----|-1*-1*----|
G|-5*-------9*-|-2--0--0--0----|-2--0-----|
D|-5--5*-9*-9--|-2--2--0--2----|-2--2-----|
A|-3--5--6--7--|-0--3--2--2----|-0--3-----|
E|----3--------|-------3--0----|-------3b-|

repeat riff 2x. end on this.
e|-----|
B|-----|
G|-----|
D|-2~--|
A|-2---|
E|-0---|

Comments