Nofx - Seeing Double At The Triple Rock Chords & Tabs

 

Seeing Double At The Triple Rock Chords & Tabs

Nofx Chords & Tabs

Version: 1 Type: Tab 2 ratings
1 star 2 stars 3 stars 4 stars 5 stars
comments

Seeing Double At The Triple Rock Tab

   
## NOFX - Seeing Double At the triple Rock ##
## I hope that this tab is correctly ... sorry for my english, but it's sucks!!!

Intro x 4(guitar A)

E----------------------------------------------------------------------|
B----------------------------------------------------------------------|
G----------------------------------------------------------------------|
D--------------------------------------7-------------------------------|
A---7-7--10--7------7--10--7-7--10--7-----10---------------------------|
E---------------10-----------------------------------------------------|

E----------------------------------------------------------------------|
B----------------------------------------------------------------------|
G------------------------------77--------------------------------------|
D------------------------------77--77----------------------------------|
A---7-7--10--7------7--10------55--77----------------------------------|
E---------------10-----------------55----------------------------------|

@ the end of the Intro

E----------------------------------------------------------------------|
B----------------------------------------------------------------------|
G----7-7-7-------------------------------------------------------------|
D----7-7-7--7--5-------------------------------------------------------|
A----5-5-5--7--5-------------------------------------------------------|
E-----------5--3-------------------------------------------------------|

Intro Guitar B (This guitar plays under the Guitar A riff)
[ Tab from: http://www.guitartabs.cc/tabs/n/nofx/seeing_double_at_the_triple_rock_tab.html ]
E----------------------------------------------------------------------|
B----------------------------------------------------------------------|
G---999999999---7-7--8-8---------999999999-----------7--9--------------|
D---999999999---7-7--8-8---------999999999---777--5--7--9--------------|
A---777666555---5-5--6-6---------777666555---777--5--5--7--------------|
E--------------------------------------------555--3--------------------|

Verse x2(The A and the B guitar are the same) /* All chords are play a lot */   Note: pm = palmmute

  pm pm pm pm      pm pm pm pm
E----------------------------------------------------------------------|
B----------------------------------------------------------------------|
G---------7---------------7--9-----------------------------------------|
D---2--5--7--7-5----2--5--7--9-----------------------------------------|
A---0--5--5--7-5----0--5--5--7-----------------------------------------|
E---0--3-----5-3----0--3-----------------------------------------------|

Bridge

E----------------------------------------------------------------------|
B----------------------------------------------------------------------|
G----5-7-9-9-----------------------------------------------------------|
D----5-7-9-9--7-3------------------------------------------------------|
A----3-5-6-7--7-3------------------------------------------------------|
E-------------5-5------------------------------------------------------|

Intro x2
Verse x2
Bridge x2
at
                                                                       @ the end.
E----5---3--3--0-------------------------------------------------------|-5--3-|
B----5---5--3--0-------------------------------------------------------|-5--5-|
G----5---5--4--0-------------------------------------------------------|-5--5-|
D----7---5--5--2-------------------------------------------------------|-7--5-|
A----7---3--5--2-------------------------------------------------------|-7--3-|
E----5------3--0-------------------------------------------------------|-5----|

Intro x2

y0y0 guys ... enj0y :ยทรพ
For any fuckin' question send me a mail at e0f(at)30gigs(dot)com
Comments