Nofx - San Francisco Fat Chords & Tabs

 

San Francisco Fat Chords & Tabs

Nofx Chords & Tabs

Version: 1 Type: Tab 0 ratings
1 star 2 stars 3 stars 4 stars 5 stars
comments

San Francisco Fat Tab

   
SAN FRENCISCO FAT - NOFX

By:Alejo

I didnt place the timing so u dudes will have to figure that out.

INTRO:
e|---------------------------------------------------------------------------|
B|---------------------------------------------------------------------------|
G|-------------------------10-10-10-10-10-10-10-10-10------------------------|
D|--X-X-XX-7-7-7-7-7-7-7-7-10-10-10-10-10-10-10-10-10---------(2x)-----------|
A|--X-X-XX-7-7-7-7-7-7-7-7-8--8--8--8--8--8--8--8--8-------------------------|
E|--X-X-XX-5-5-5-5-5-5-5-5---------------------------------------------------|

e|---------------------------------------------------------------------------|
B|---------------------------------------------------------------------------|
G|--------------------12-12-12-12-12-12-10-10-10-10-10-10-10-10-10-10-10-10--|
D|--7-7-7-7-7-7-7-7-7-12-12-12-12-12-12-10-10-10-10-10-10-10-10-10-10-10-10--|
A|--7-7-7-7-7-7-7-7-7-10-10-10-10-10-10-8--8--8--8--8--8--8--8--8--8--8--8---|
E|--5-5-5-5-5-5-5-5-5--------------------------------------------------------|

VERSE:
       hollywood                                 assholes...
e|---------------------------------------------------------------------------|
B|---------------------------------------------------------------------------|
G|-----------------------------------------------10--------------------------|
D|--7--------------------------------------------10--------------------------|
A|--7-let ring------------------------------------8------------------(3x)----|
E|--5------------------------------------------------------------------------|

e|---------------------------------------------------------------------------|
B|---------------------------------------------------------------------------|
G|-----------------------------------------------12--------------------------|
D|--7--------------------------------------------12--------------------------|
A|--7--------------------------------------------10--------------------------|
E|--5------------------------------------------------------------------------|

PRE-CHORUS:
skinny girl............
e|---------------------------------------------------------------------------|
B|---------------------------------------------------------------------------|
G|-5-5-5-5-5-5-5-5-5-5-5-5-5-5-7-7----------------------12--10-10-10-10-10---|
D|-5-5-5-5-5-5-5-5-5-5-5-5-5-5-7-7-5-7-7-7-7-7-7-7-7-7--12--10-10-10-10-10---|
A|-3-3-3-3-3-3-3-3-3-3-3-3-3-3-5-5-5-7-7-7-7-7-7-7-7-7--10--8--8--8--8--8----|
E|---------------------------------3-5-5-5-5-5-5-5-5-5-----------------------|
[ Tab from: http://www.guitartabs.cc/tabs/n/nofx/san_francisco_fat_tab.html ]
muscle man.............
e|---------------------------------------------------------------------------||
B|---------------------------------------------------------------------------||
G|-10-10-10-10-10-10-10--10----9----10-10-10-10-10-10-10-10-10-10-10-10------||
D|-10-10-10-10-10-10-10--10-10-9-7--10-10-10-10-10-10-10-10-10-10-10-10------||
A|-8--8--8--8--8--8--8---8--10-7-7--8--8--8--8--8--8--8--8--8--8--8--8-------||
E|--------------------------8----5-------------------------------------------||

CHORUS:
take me home...........
e|---------------------------------------------------------------------------|
B|---------------------------------------------------------------------------|
G|-5-5-5-5-5-5-5-7-7-7-7-7-7-7---------------9-9-9-9-9-9-9-10-10-10-10-10-10-|
D|-5-5-5-5-5-5-5-7-7-7-7-7-7-7-7-7-7-7-7-7-7-9-9-9-9-9-9-9-10-10-10-10-10-10-|
A|-3-3-3-3-3-3-3-5-5-5-5-5-5-5-7-7-7-7-7-7-7-7-7-7-7-7-7-7-8--8--8--8--8--8--|
E|-----------------------------5-5-5-5-5-5-5---------------------------------|
						         lets go.....
e|---------------------------------------------------------------------------|
B|---------------------------------------------------------------------------|
G|----------------------12-12-12-12-12-10-10-10-10-10------------------------|
D|-10-10-10-10-10-10-10-12-12-12-12-12-10-10-10-10-10-10-10-10-10-10-10-10---|
A|-10-10-10-10-10-10-10-10-10-10-10-10-8--8--8--8--8--10-10-10-10-10-10-10---|
E|-8--8--8--8--8--8--8--------------------------------8--8--8--8--8--8--8----|

VERSE:
e|---------------------------------------------------------------------------|
B|---------------------------------------------------------------------------|
G|-------------------9---7---5----/10----9------12---12-12-12-12-12-12-12----|
D|-7-----------------X---X---X----/10----X------X----X--X--X--X--X--X--X-----|
A|-7-----------------7---5---3----/8-----7------10---10-10-10-10-10-10-10----|
E|-5-------------------------------------------------------------------------|

los angeles..............
e|---------------------------------------------------------------------------|
B|---------------------------------------------------------------------------|
G|--now just repeat the pre-chorus and the chorus----------------------------|
D|---------------------------------------------------------------------------|
A|---------------------------------------------------------------------------|
E|---------------------------------------------------------------------------|

and thats about it if you have any doubt or corrections e-mail me at 
the_dude@punkharcore.com or .net i dont remember........
Comments