Nofx - Reeko Chords & Tabs

 

Reeko Chords & Tabs

Nofx Chords & Tabs

Version: 1 Type: Bass Tab 0 ratings
1 star 2 stars 3 stars 4 stars 5 stars
comments

Reeko Bass Tab

    From: Tfazappa@aol.com (unknown)
    Subject: BASS TAB: Reeko by NOFX
    
    This is, for the most part, dead on balls accurate.  you have to listen with
    the song to get the timing, but the changes and the chords are all more or
    less right.  a friend pointed out that my ending might by screwed up, but
    i'll get to that later.
    
    D---------------------------------------3----------5--------------------------
    ------------
    A--3-h-5-\-0----3-h-5--5-5-5-5-----3---3-------------------3-h-5--3-h-5-\-0--
    E-----------------------------------------------------------------------------
    --------------
    
    D---------------5--5--3---3---------3--3-----------------3--------------
    A--3------------------------------------------3---3-h-5------5--3-------
    E------3---3------------------5--5-----------------------------------5---
    
    D---------------------------------------3-------------------------------------
    3-----
    A--3-h-5--3-------7-\-0---3-h-5------5--3------3-h-5-5-5-5-5-5------5--
    E----------------5---------------------------------5--------------------------
    -------
    
    D---------------3--2--------------------------------
    A-----3----3----------5--3---------2--5--3------
    E--3--------------------------3--5-----------------
    
    
    then there's the other verse, played more or less just like that one.
    and the solo, played more or less excactly like that one.
    then the cool punk rock part.
    
    write me with changes - tfazappa@aol.com


[ Tab from: http://www.guitartabs.cc/tabs/n/nofx/reeko_btab.html ]
Comments