Nofx - Quart In Session Chords & Tabs

 

Quart In Session Chords & Tabs

Nofx Chords & Tabs

Version: 1 Type: Tab 0 ratings
1 star 2 stars 3 stars 4 stars 5 stars
comments

Quart In Session Tab

   
QUART IN SESSION by NOFX. Album : So long and thanks for all the shoes (1997)
There are three guitars played, but the third one is only that bleep - bleep
- bleep sound. I wrote the notes here so I didn't have to intrude it later.
First note is E-15-| and second G-12-|.
A=Melvin   B=El Hefe   A&B=both
:
# chorus #A&B 
E-----------------------------------------------------|
B-----------------------------------------------------|
G---------------------5-5-5---------------------------|
D---5-5-5-------2-2-2-5-5-5-5-5-5-5-5-5-5-5-5-5-5-5---|
A---5-5-5-0-0-0-2-2-2-3-3-3-5-5-5-5-5-5-5-5-5-5-5-5---|
E---3-3-3-2-2-2-0-0-0-------3-3-3-3-3-3-3-3-3-3-3-3---|
:
# verse #A&B X2   !palm-muted!
E---------------------------------------------------------------------|
B---------------------------------------------------------------------|
G-----------5-5-5-5-------------------------5-5-5-5---------7-7-7-7---|
D---5-5-5-5-5-5-5-5-5-5-5-5-7-7-7-7-2-2-2-2-5-5-5-5-5-5-5-5-7-7-7-7---|
A---5-5-5-5-3-3-3-3-5-5-5-5-7-7-7-7-2-2-2-2-3-3-3-3-5-5-5-5-5-5-5-5---|
E---3-3-3-3---------3-3-3-3-5-5-5-5-0-0-0-0---------3-3-3-3-----------|
:
Then play A&BchorusA&B.
:
# bridge #A   *=play 7X     (Don't feel like going out...)
E-------------------------------------------|
B-------------------------------------------|
G-------5---------------5-----------8--10---|
D---7---5---5---5---7---5---5---5---8--10---|
A---7---3---5---5---7---3---5---5---6---8---|
E---5-------3---3---5-------3---3-----------|
# bridge #B   *=play 7X
E-------------------------------------------|
B-------------------------------------------|
G-------5---------------5-------------------|
D---7---5---5---5---7---5---5---5---1---3---|
A---7---3---5---5---7---3---5---5---1---3---|
E---5-------3---3---5-------3---3-------1---|
:
# chorus2 #A X2   !palm-muted!  !B is quiet!
E-------------------------------------|
B-------------------------------------|
G---------------------------5-5-5-5---|
D---5-5-5-5---------2-2-2-2-5-5-5-5---|
A---5-5-5-5-0-0-0-0-2-2-2-2-3-3-3-3---|
E---3-3-3-3-2-2-2-2-0-0-0-0-----------|
:
# chorus2-part2 #B X2   !A plays chorus2AX2! 
E-------------------------------------|
B-------------------------------------|
G-------------------------------------|
D---5-4-5-4-5-4-5-4-5-4-5-4-5-4-5-4---|
A-------------------------------------|
E-------------------------------------|
:
Then play Achorus2AX4 (without palm-mute) or Bchorus2-part2BX4.
:
# outro #A&B      !palm-muted!
E---------------------------|
B---------------------------|
G-----------5-5-5-5---------|
D---5-5-5-5-5-5-5-5-5-5-5---|
A---5-5-5-5-3-3-3-3-5-5-5---|
E---3-3-3-3---------3-3-3---|
:
Yeah.
Tabbed by Jussi Heinonen 27.09.1998.

[ Tab from: http://www.guitartabs.cc/tabs/n/nofx/quart_in_session_tab.html ]
Comments