Nofx - Pump Up The Valuum Chords & Tabs

 

Pump Up The Valuum Chords & Tabs

Nofx Chords & Tabs

Version: 1 Type: Tab 0 ratings
1 star 2 stars 3 stars 4 stars 5 stars
comments

Pump Up The Valuum Tab

   
Pump Up the Valuum 
By NOFX 
From Punk-O-Rama IV 
Tabbed by Jennifer K. Anderson (Sk8erPunkGirl@jensmail.com)


Intro
E)----------------------------------------|
B)----------------------------------------|
G)-9\7-9\7/12-12-12----------12-12-12-9-9-|
D)-9\7-9\7/12-12-12-10-10-10-12-12-12-9-9-|
A)-7\5-7\5/10-10-10-10-10-10-10-10-10-7-7-|
E)-------------------8--8--8--------------|

Verse
E)-------------------------------------------------------------------|
B)-------------------------------------------------------------------|
G)-9-x-x-x-9-x-x-x-----------------------------------7-x-x-x-7-x-x-x-|
D)-9-x-x-x-9-x-x-x-10-x-x-x-10-x-x-x-5-x-x-x-5-x-x-x-7-x-x-x-7-x-x-x-|
A)-7-x-x-x-7-x-x-x-10-x-x-x-10-x-x-x-5-x-x-x-5-x-x-x-5-x-x-x-5-x-x-x-|
E)------------------8-x-x-x--8-x-x-x-3-x-x-x-3-x-x-x-----------------|
^-----------------------------------2x----------------------------^ 
Bass only on next part
[ Tab from: http://www.guitartabs.cc/tabs/n/nofx/pump_up_the_valuum_tab.html ]
Then:
E)-------------------------------------------------|
B)-------------------------------------------------|
G)-14------12-----14------12------------------7----|
D)-14-x24--12-x8--14-x24--12-x8--10-----5-----7-x8-|
A)-12------10-----12------10-----10-x8--5-x8--5----|
E)--------------------------------8-----3----------|

E)------------------------------------------|
B)------------------------------------------|
G)-9\7-9\7/12-12-12----------12-12-12-9-9-9-|
D)-9\7-9\7/12-12-12-10-10-10-12-12-12-9-9-9-|
A)-7\5-7\5/10-10-10-10-10-10-10-10-10-7-7-9-|
E)-------------------8--8--8----------------|
^-------------------2x-------------------^ 
E)----------------------------------------------------|
B)----------------------------------------------------|
G)-9-9-9-9\7/12-12-12-12-12-12-12-------------12-11-9-|
D)-9-9-9-9\7/12-12-12-12-12-12-12-10-10-10-10-12-11-9-|
A)-7-7-7-7\5/10-10-10-10-10-10-10-10-10-10-10-10--9-7-|
E)---------------------------------8--8--8--8---------|
^------------------------2x-------------------------^

Back to verse and repeat everything else then end with
E)----------------------------------------------------|
B)----------------------------------------------------|
G)-9-9-9-9\7/12-12-12-12-12-12-12-12-------------12-9-|
D)-9-9-9-9\7/12-12-12-12-12-12-12-12-10-10-10-10-12-9-|
A)-7-7-7-7\5/10-10-10-10-10-10-10-12-10-10-10-10-10-7-|
E)------------------------------------8--8--8--8------|
Comments