Nofx - Professional Crastination Chords & Tabs

 

Professional Crastination Chords & Tabs

Nofx Chords & Tabs

Version: 1 Type: Tab 0 ratings
1 star 2 stars 3 stars 4 stars 5 stars
comments

Professional Crastination Tab

PROFESSIONAL CRASTINATION by NOFX. Album: S&M Airlines (1989)                
Energy! The other guitar is missing in some parts.
A=lead guitar  B=background guitar   A&B=both guitars
:
# acoustic intro #A    X2        X=left hand-mute
E--------------------------------------------------------------------|
B--------------------------------------------------------------------|
G----9-9-X---9-9-X---7-7-X---7-7-X---7-7-X---7-7-X---5-5-X---5-5-X---|
D----7-7-X---7-7-X---7-7-X---7-7-X---5-5-X---5-5-X---5-5-X---5-5-X---|
A--------------------------------------------------------------------|
E--------------------------------------------------------------------|
:
# intro #A
E---------------------------------------------------------------|
B---------------------------------------------------------------|
G---------------------------------------------7-7-7-7-5-5-5-5---|
D---2-----------------------------------------7-7-7-7-5-5-5-5---|
A---2-----------------------------------------5-5-5-5-3-3-3-3---|
E---0-----------------------------------------------------------|
# intro #B    *=play 5X   m=mute
E---------------------------------------------------------------|
B------*-------------*-------------*----------------------------|
G---9-9--12-7-9---9-9--12-7-9---9-9--12-7-9---7-7-7-7-5-5-5-5---|
D---9-9--12-7-9---9-9--12-7-9---9-9--12-7-9---7-7-7-7-5-5-5-5---|
A---7-7--10-5-7---7-7--10-5-7---7-7--10-5-7---5-5-5-5-3-3-3-3---|
E-----m-------------m-------------m-----------------------------|
:
# verse #A&B  X2
E---------------------------------------------------------------|
B------*-------------*-------------*----------------------------|
G---9-9--12-7-9---9-9--12-7-9---9-9--12-7-9---7-7-7-7-5-5-5-5---|
D---9-9--12-7-9---9-9--12-7-9---9-9--12-7-9---7-7-7-7-5-5-5-5---|
A---7-7--10-5-7---7-7--10-5-7---7-7--10-5-7---5-5-5-5-3-3-3-3---|
E-----m-------------m-------------m-----------------------------|
:
# chorus #A                 
E-------------------|
B-------------------|
G---9---------------|
D---9---5---7---9---|
A---7---5---7---9---|
E-------3---5---7---|
# chorus #B
E-------------------|
B-------------------|
G-------------------|          > Then play verseA&B, chorusA or chorusB. >
D---2---5---7---9---|
A---2---5---7---9---|
E---0---3---5---7---|
:
# bridge #A&B           *=play 8X
E---------------------------------------------------------------------------|
B----*--------------------*---*---*--------------------*--------------------|
G---9---12----12----12---7---9---9---12----12----12---7---5-5-5-5-4-4-4-4---|
D---9---12-12-12-12-12---7---9---9---12-12-12-12-12---7---5-5-5-5-4-4-4-4---|
A---7---10-12-10-12-10---5---7---7---10-12-10-12-10---5---3-3-3-3-2-2-2-2---|
E----------10----10---------------------10----10----------------------------|
Then guitarB play acoustic intro X6 (unknown soloA at the background).
:
# bridge2 #A&B  (distortion comes)  ()=play 4X   ps=pick-slide
E-------------------------------|
B-------------------------------|
G--(--------7---9)----------7---|    > Then play verseB X3 or unknown solo2A,
D--(2---5---7---9)--2---5---7-ps|      and then bridgeA&B. >                         
A--(2---5---5---7)--2---5---5---|
E--(0---3--------)--0---3-------|
At the end guitarA plays high-E5 ang guitarB low-E5. And then tilt!
Tabbed by Jussi Heinonen 28.11.1997.

[ Tab from: http://www.guitartabs.cc/tabs/n/nofx/professional_crastination_tab.html ]
Comments